Friday, November 7, 2014

Cara Bermain Melodi Gitar Topeng - Peterpan


TUTORIAL GITAR LENGKAP - Cara Bermain Melodi Gitar Topeng - Peterpan. Peterpan memang sebuah band asal Indonesia yang sangat legendaris. Band ini banyak sekali menciptakan lagu-lagu yang sangat populer dan banyak disukai orang, baik di kalangan anak kecil, orang dewasa, bapak-bapak, ibu-ibu bahkan orang tua. Beberapa lagu lamanya yang cukup terkenal adalah lagu berjudul Ada apa denganmu, Mimpi yang sempurna, dan masih banyak lagi.

Untuk kalangan remaja, lagu lama yang mungkin banyak digandrungi waktu itu adalah lagu berjudul Topeng. Bagi anda yang ingin belajar bermain melodi gitar lagu topeng, disini caragitar.com akan memberikan tutorial cara bermain melodi gitar Peterpan - Topeng.

Di kala itu grup band Peterpan memang menjadi grup band no.1 di Indonesia. Sampai sekarang mereka juga masih aktif walaupun sudah berganti nama menjadi Noah

Topeng Peterpan

Disini caragitar.com akan memberikan tutorial cara bermain melodi Topeng dalam bentuk sebuah tab gitar. Jika sebelumnya anda belum bisa membaca tab gitar, saya sarankan anda mempelajarinya terlebih dahulu. Untuk mempelajarinya sangatlah mudah.

Sebelum anda mulai mempraktekanya, disini tuning yang digunakan adalah tuning standard. Jadi setem gitar anda terlebih dahulu ke stem-an standard.

Cara Bermain Melodi Gitar Topeng - Peterpan


Melodi


Chord: C 
       F G C 
       F G C 
       F G Am 
       F G C G 

Tab Gitar:

E[---------------------------------------------------------------]
B[---------------------------------------------------------------]
G[---5-5~--5-555555-----7/9--7\5--5-5---7-7--5-------------------]
D[---5-5~--5-555555----------------------------------------------]  
A[---3-3~--3-333333-----5/7--5\3--3-3---5-5--3-------------------]
E[---------------------------------------------------------------]

E[-------------------------------------------------]
B[-------------------------------------------------]
G[--------7/9--7\5--5-5---7-7--5-------------------]
D[-------------------------------------------------]  
A[--------5/7--5\3--3-3---5-5--3-------------------]
E[-------------------------------------------------]

E[----------------------------------------------------]
B[----------------------------------------------------]
G[-------7/9--7\5--9-9---12-12-12---------------------]
D[----------------------------------------------------]  
A[-------5/7--5\3--7-7---10-10-10---------------------]
E[----------------------------------------------------]

E[-------------------------------------------------]
B[-------------------------------------------------]
G[--------7/9--7\5--5-5---7-7--5-------------------]
D[-------------------------------------------------]  
A[--------5/7--5\3--3-3---5-5--3-------------------]
E[-------------------------------------------------]

Bagian Lagu

melodi gitar topeng peterpan tab

Melodi


E[-------------------------------------------------]
B[-------------------------------------------------]
G[--------7/9--7\5--5-5---7-7--5-------------------]
D[-------------------------------------------------]  
A[--------5/7--5\3--3-3---5-5--3-------------------]
E[-------------------------------------------------]

E[-------------------------------------------------]
B[-------------------------------------------------]
G[--------7/9--7\5--5-5---7-7--5-------------------]
D[-------------------------------------------------]  
A[--------5/7--5\3--3-3---5-5--3-------------------]
E[-------------------------------------------------]

E[----------------------------------------------------]
B[----------------------------------------------------]
G[-------7/9--7\5--9-9---12-12-12---------------------]
D[----------------------------------------------------]  
A[-------5/7--5\3--7-7---10-10-10---------------------]
E[----------------------------------------------------]

E[-------------------------------------------------]
B[-------------------------------------------------]
G[--------7/9--7\5--5-5---7-7--5-------------------]
D[-------------------------------------------------]  
A[--------5/7--5\3--3-3---5-5--3-------------------]
E[-------------------------------------------------]


Bagian Lagu

tab gitar topeng peterpan

Melodi


E[-------------------------------------------------]
B[-------------------------------------------------]
G[--------7/9--7\5--9-9---7-7--5-------------------]
D[-------------------------------------------------]  
A[--------5/7--5\3--7-7---5-5--3-------------------]
E[-------------------------------------------------]  

E[----------------------------------------------------]
B[----------------------------------------------------]
G[-------7/9--7\5--9-9---12-12-12---------------------]
D[----------------------------------------------------]  
A[-------5/7--5\3--7-7---10-10-10---------------------]
E[----------------------------------------------------]

E[---------------------------------------------------7h8-7h8p7-------]
B[----------------------------------------------8-10-----------10-8--]
G[----7/9--7\5--9-9---12-12-14----------5-5-7/9----------------------]
D[--------------------------------5-5/7------------------------------]  
A[----5/7--5\3--7-7---10-10-12---------------------------------------]
E[-------------------------------------------------------------------]

E[-------------------------------------------------]
B[-------------------------------------------------]
G[--------7/9--7\5--9-9---7-7--5-------------------]
D[-------------------------------------------------]  
A[--------5/7--5\3--7-7---5-5--3-------------------]
E[-------------------------------------------------]  

E[----------------------------------------------------]
B[----------------------------------------------------]
G[-------7/9--7\5--9-9---12-12-12---------------------]
D[----------------------------------------------------]  
A[-------5/7--5\3--7-7---10-10-10---------------------]
E[----------------------------------------------------]

E[-------------------------------------------------------------------]
B[-------------------------------------------------------------------]
G[----7/9--7\5--9-9---12-12-14---17-17-17-14-14-14-9-7-5-7/9-7-5-----]
D[-------------------------------------------------------------------]  
A[----5/7--5\3--7-7---10-10-12---15-15-15-12-12-12-7-5-3-5/7-5-3-----]
E[-------------------------------------------------------------------]

Bagian Lagu

tab melodi topeng peterpan

Melodi


E[-------------------------------------------------]
B[-------------------------------------------------]
G[--------7/9--7\5--9-9---7-7--5-------------------]
D[-------------------------------------------------]  
A[--------5/7--5\3--7-7---5-5--3-------------------]
E[-------------------------------------------------]  

E[-------------------------------------------------]
B[-------------------------------------------------]
G[-------7/9--7\5--9-9---12-12-12------------------]
D[-------------------------------------------------]  
A[-------5/7--5\3--7-7---10-10-10------------------]
E[-------------------------------------------------]

E[-------------------------------------------------]
B[-------------------------------------------------]
G[----7/9--7\5--9-9---12-12-14---------------------]
D[-------------------------------------------------]  
A[----5/7--5\3--7-7---10-10-12---------------------]
E[-------------------------------------------------]

E[-------------------------------------------------]
B[-------------------------------------------------]
G[--------7/9--7\5--5-5---7-7--5-------------------]
D[-------------------------------------------------]  
A[--------5/7--5\3--3-3---5-5--3-------------------]
E[-------------------------------------------------] 

E[-------------------------------------------------]
B[-------------------------------------------------]
G[-------9-9-10-9-7-5-5-7-7-5----------------------]
D[-------------------------------------------------]  
A[-------7-7-8--7-5-3-3-5-5-3----------------------]
E[-------------------------------------------------]

Naaa na na... Naaa na na...

E[-------------------------------------------------]
B[-------------------------------------------------]
G[--------7/9--7\5--5-5---7-7--5-------------------]
D[-------------------------------------------------]  
A[--------5/7--5\3--3-3---5-5--3-------------------]
E[-------------------------------------------------]
 
Naaa na na... Naaa na na...

E[-------------------------------------------------]
B[-------------------------------------------------]
G[-------7/9--7\5--9-9---12-12-12------------------]
D[-------------------------------------------------]  
A[-------5/7--5\3--7-7---10-10-10------------------]
E[-------------------------------------------------]

Naaa na na... Naaa na na...

E[-------------------------------------------------]
B[-------------------------------------------------]
G[--------7/9--7\5--5-5---7-7--5-------------------]
D[-------------------------------------------------]  
A[--------5/7--5\3--3-3---5-5--3-------------------]
E[-------------------------------------------------]


Selesai

Jika masih ada yang salah dengan tab gitar diatas, silahkan dikoreksi dengan memberikan komentar dibawah ini. Karena tab gitar diatas adalah hasil penulisan dan hasil kulikan saya sendiri.

Untuk yang belum jelas, bisa lihat dai cover gitar Topeng - Peterpan yang saya ambil dari youtube dibawah ini :

Video Cover Gitar Peterpan - Topeng





Artikel terkait :
 - Tutorial lagu petikan Sempurna - Andra and The Backbone
 - Cara Bermain Melodi Gitar Kotak Beraksi
 - Cara Bermain Melodi Ungu - Luka Disini
 - Cara Bermain Melodi Ungu - Jika Itu Yang Terbaik
 - Cara Bermain Petikan Gitar Peterpan - Semua Tentang Kita

3 comments:

  1. Request tutorial melody nya last child tak pernah ternilai
    Trimakasih

    ReplyDelete
  2. Kok main melody nya dari senar 5 kolom 5 ? Senar trsbut kan kunci D
    Sedangkan lagu ini kunci C

    ReplyDelete