Thursday, October 2, 2014

Kumpulan Lick Melody Gitar Akustik


TUTORIAL GITAR LENGKAP - Kumpulan Lick Melody Gitar Akustik. Untuk memperbanyak referensi berbagai melody gitar, memainkan lick lagu tertentu memang bisa diandalkan. Disini kita akan mempelajari beberapa lick dari lagu-lagu terkenal yang menggunakan gitar Akustik.

Lick dibawah ini akan selalu update setiap saat, silahkan bookmark halaman ini dengan memencet shortcut CTRL + D pada keyboard komputer anda, atau klik bookmark pada browser smartphone anda. Jika anda ingin me-request lick anda bisa memberikan komentar anda dibawah artikel ini.

Lick akan diberikan dalam bentuk tab gitar, jadi jika anda belum bisa membaca tab gitar silahkan baca artikel ini :
- Cara membaca tab gitar untuk pemula

Untuk mencari artist/judul lagu silahkan klik CTRL+F kemudian tulis nama artis/lagu klik ENTER

Kumpulan Lick Melody Gitar Akustik.


1. Extreme - More Than Words (Intro)

Tuning: Eb Ab Db Gb Bb Eb (standerd 1/2 step down)

INTRO:

   G     G/B     Cadd9             Am7               C         Dsus4   G
   +   +   +   +     +   +   +   +     +   +   +   +     +   +   +   +
e:---3-------3-----|---0-----3-0-----|---0-----3-0-----|---0---2---3-----|
B:---3-x-3---3-x-3-|---3-x---3-3-x-1-|---1-x-1-1-1-x-1-|---1-x-3---3-x-3-|
G:---0-x-0---0-x-0-|---0-x---0-0-x-0-|---0-x-0-0-0-x-0-|---0-x-2---2-x-0-|
D:-----x-------x---|-----x-------x---|-----x-------x---|-----x---0---x---|
A:-------2-------3-|-------3---3---0-|-------0-------3-|-----------------|
E:-3---------------|-----------------|-----------------|---------------3-|


         G/B     Cadd9             Am7               C         Dsus4   G
   +   +   +   +     +   +   +   +     +   +   +   +     +   +   +   +
e:---3-------3-----|---0-----3-0-----|---0-----3-0-----|---0---2---3-----|
B:---3-x-3---3-x-3-|---3-x---3-3-x-1-|---1-x-1-1-1-x-1-|---1-x-3---3-x-3-|
G:---0-x-0---0-x-0-|---0-x---0-0-x-0-|---0-x-0-0-0-x-0-|---0-x-2---2-x-0-|
D:-----x-------x---|-----x-------x---|-----x-------x---|-----x---0---x---|
A:-------2-------3-|-------3---3---0-|-------0-------3-|-----------------|
E:-----------------|-----------------|-----------------|---------------3-|


2. Metallica - Enter Sandman (Intro)

Intro:   (Play 12 times)
======
1|---------------------------------------------------------------------------|
2|---------------------------------------------------------------------------|
3|---------------------------------------------------------------------------|
4|------------5--------------------------------------------------------------|
5|--------7---------------7--------------------------------------------------|
6|----0-----------6---5------------------------------------------------------|


3. Peterpan - Semua Tentang Kita (Intro)

 C                         G                        
|-------------------------|-------------------------|
|-------------------------|-------------------------|
|-------------------------|-------------------------|
|-----2-----2/3--2-----0--|--------0-------0-----2--|
|--3-----3----------3-----|-----2-----2/3-----3-----|
|-------------------------|--3----------------------|

 Am7                     Em
|-----------------------|-----------------------|
|-----------1-----------|-----------0-----------|
|--------------0-----0--|--------0-----0-----0--|
|-----2-----------2-----|-----2-----------2-----|
|--0-----0--------------|-----------------------|
|-----------------------|--0--------------------|

 F                       C                         
|-----------------------|-------------------------|
|-----------1-----------|--------1----------------|
|-----0--------0-----0--|----------------0--------|
|--3-----3--------3-----|-----2-----0/2--------0--|
|-----------------------|--3----------------3-----|
|-----------------------|-------------------------|

 Am7                     G
|-----------------------|-----------------------------1--------|
|-----------1-----------|-----------1--------3-----------3-----|
|--------------0-----0--|--------0-----0--------0-----------0--|
|-----2-----------2-----|-----0-----------0--------0-----------|
|--0-----0--------------|--------------------------------------|
|-----------------------|--3-----------------------------------|


4. update soon...

No comments:

Post a Comment