Thursday, October 23, 2014

Cara Bermain Melodi Jika Itu Yang Terbaik - Ungu


TUTORIAL GITAR LENGKAP - Cara Bermain Melodi Jika Itu Yang Terbaik - Ungu. Ungu adalah sebuah grup band asal Indonesia yang sangat terkenal. Mungkin hampir semua anak muda di Indonesia pasti mengenal band yang satu ini. Ungu sendiri sekarang beranggotakan Pasha sebagai penyanyi, Makki sebagai bass, Oncy sebagai gitar, dan Rowman sebagai drum. Sampai saat ini ungu sudah mempunyai 6 album dan 5 album mini religi terhitung sampai tahun 2013.

Selain mengeluarkan album, ungu kadang juga mengeluarkan lagu single. Salah satu lagu single yang banyak disukai oleh kalangan orang adalah lagu berjudul "Jika Itu Yang Terbaik". Dengan nuansa lagu yang cukup santai lagu ini berhasil memikat banyak penggemar.

Bagi anda yang ingin belajar cara memainkan lagu ini, disini caragitar.com akan memberikan tutorial cara memainkan intro melodi lagu ini. Pada bagian awal lagu "Jika Itu Yang Terbaik" terdapat sebuah intro melodi yang dimainkan dengan menggunakan gitar elektrik + sound efek. Disini kita akan bahas melodi intro tersebut.

Pada lagu ungu ini pastikan anda menggunakan gitar dengan stem/tuning standard. Jika anda mengalami kesulitan cara menyetem gitar standard, silahkan baca dahulu artikel ini: 
Dibawah ini adalah tutorial cara bermain melodi intro Jika Itu Yang Terbaik yang diberikan dalam sebuah tab gitar. Jadi bila anda belum bisa membaca tab, silahkan pelajari terlebih dahulu cara membaca tab gitar. Untuk mempelajarinya sangatlah cepat, tidak membutuhkan waktu yang lama.
 - Cara cepat membaca tab gitar untuk pemula

Cara Bermain Melodi Jika Itu Yang Terbaik - Ungu


1. Melodi Intro
Pada awal lagu terdapat melodi intro yang dimainkan dengan menggunakan gitar. Ada 2 gitar yang digunakan, yang satu memainkan rytem, sedangkan yang satunya lagi memainkan leadnya.

Guitar 1

Menit ke : 00.10

e|---------------------------------------------------------------------------|
B|--5-5-7-7-7-7h8-----5-5-7-7-7-7h8-----5-5-7-7-7-7h8-----8-8-7-7-7-7p5------|  
G|---------------------------------------------------------------------------|   
D|---------------------------------------------------------------------------|  
A|---------------------------------------------------------------------------|
E|---------------------------------------------------------------------------|
   
e|---------------------------------------------------------------------------|
B|--5-5-7-7-7-7h8-----5-5-7-7-7-7h8-----5-5-7-7-7-7h8-----8-8-7-7-7-7p5------|
G|---------------------------------------------------------------------------|   
D|---------------------------------------------------------------------------|  
A|---------------------------------------------------------------------------|
E|---------------------------------------------------------------------------|

Guitar 2

Menit ke : 00.08

Gitaris ke-2 memainkan rythem dengan chord sebagai berikut :

Em D G D Am (2x)


2. Bagian Lagu
Bagian lagu dimulai pada menit ke 00.38
Disini gitaris ke-2 akan mengiringi lagu dengan chord sebagai berikut :

Chord Ungu Jika Itu Yang Terbaik

3. Intro 
Disini adalah intro kedua, cara memainkanya sama seperti intro bagian pertama. yaitu :

Guitar 1

Menit ke : 00.10

e|---------------------------------------------------------------------------|
B|--5-5-7-7-7-7h8-----5-5-7-7-7-7h8-----5-5-7-7-7-7h8-----8-8-7-7-7-7p5------|  
G|---------------------------------------------------------------------------|   
D|---------------------------------------------------------------------------|  
A|---------------------------------------------------------------------------|
D|---------------------------------------------------------------------------|
   
e|---------------------------------------------------------------------------|
B|--5-5-7-7-7-7h8-----5-5-7-7-7-7h8-----5-5-7-7-7-7h8-----8-8-7-7-7-7p5------|
G|---------------------------------------------------------------------------|   
D|---------------------------------------------------------------------------|  
A|---------------------------------------------------------------------------|
D|---------------------------------------------------------------------------|

Guitar 2

Menit ke : 00.08

Gitaris ke-2 memainkan rythem dengan chord sebagai berikut :

Em D G D Am (2x)

4. Bagian Lagu
Setalah intro ke-2, kita masuk ke bagian lagu lagi. Chordnya adalah sebagai berikut :

chord kunci gitar jika itu yang terbaik

5. Melodi Solo
Setelah bagian lagu ke-2 selesai, maka masuk ke bagian solo lead. Disini gitaris ke-1 akan memainkan melodi yang sedikit panjang pada bagian tengah lagu. Untuk tab gitarnya adalah sebagai berikut :

Guitar 1

Menit ke : 02.15

e|-------------------------------------------------------------------
B|----------------------------------------------8p7-8p7-8p7-8p7-8p7--  
G|----9-9-7h9-7h9-7h9-7h9-7h9-7h9-7h9-7h9-7h9------------------------   
D|-------------------------------------------------------------------  
A|-------------------------------------------------------------------
D|------------------------------------------------------------------



-------------------------------------------|
----8-10^--10-8-10-8-7h8-7-----------------|
---------------------------9-7-9-7-9-7-9---|   
-------------------------------------------|  
-------------------------------------------|
-------------------------------------------|


e|-------------------------------------------------------------------|
B|-------------------------------------------8p7-8p7-8p7-8p7-8p7^----|
G|-----7h9-7h9-7h9-7h9-7h9-7h9-7h9-7h9-7h9-------------------------9-|
D|-------------------------------------------------------------------|  
A|-------------------------------------------------------------------|
D|-------------------------------------------------------------------|

6. Bagian Lagu
Terakhir adalah bagian lagu, chord nya adalah sebagai berikut :


Jika ada yang salah tentang tab gitar diatas, silahkan anda koreksi dengan memberikan komentar anda dibawah. Terima kasih.


Artikel terkait :
 - Cara main melodi gitar Luka Disini - Ungu

1 comment: