Saturday, October 25, 2014

Cara Bermain Melodi Gitar Luka Disini - Ungu


TUTORIAL GITAR LENGKAP - Cara Bermain Melodi Ungu - Luka Disini. Ungu adalah band lokal asal Indonesia yang cukup populer. Lagu-lagu dari band ini dikenal dengan lagu yang mellow dan selalu mengarah ke unsur percintaan. Namun lagu-lagu seperti ini yang biasanya banyak didengar oleh orang-orang yang sedang galau atau sedang "kasmaran".

Salah satu lagu yang cukup populer dari Ungu adalah lagu berjudul Luka Disini, bagi anda para gitaris yang sedang ingin mempelajari lagu ini, disini caragitar.com akan memberikan tutorial cara memainkan lagu ungu berjudul luka disini, mulai dari intro, bagian lagu sampai dengan melodi solo. 

Disini caragitar.com akan memberikan tutorial dalam bentuk sebuah tab gitar, chord dan penjelasan. Untuk tab gitar-nya sendiri yang menulis/mengarang adalah saya (penulis) sendiri, jadi mohon dimaklumi jika nantinya ada nada yang salah atau keliru.

cara main melodi luka disini ungu

Pada lagu ungu ini pastikan anda menggunakan gitar dengan stem/tuning standard. Jika anda mengalami kesulitan cara menyetem gitar standard, silahkan baca dahulu artikel ini: 

Cara Bermain Melodi Ungu - Luka Disini


1. Intro
Bagian intro didominasi oleh permainan piano/keyboard dan tambahan ritem (Rhythm) gitar. Namun apabila anda ingin memainkan melodi intronya dengan menggunakan gitar anda juga bisa, silahkan lihat tab gitar melodi intro ungu luka disini dibawah ini.

INTRO GITAR 1 (solo melodi)

E[---------10-10-9-9-------------------------9------------
B[---------------------------12-12-10-10-------12-10-9----
G[-----9-9---------------9-9------------------------------
D[--------------------------------------------------------  
A[--------------------------------------------------------
E[--------------------------------------------------------

E[--------------------------------------------------------]
B[--------9-10------------9-10-----------10-12-12---------]
G[-----11------11------11------9-------9------------------]
D[--------------------------------------------------------] 
A[--------------------------------------------------------]
E[--------------------------------------------------------]

INTRO GITAR 2 (ritem)
CHORD : A E F#m C#m D A E

2. Bagian Lagu
Selanjutnya adalah bagian lagu, bagian ini dimulai di menit ke 00.31 Chord nya adalah sebagai berikut ini.

belajar chord ungu luka disini




No comments:

Post a Comment