Friday, October 17, 2014

Cara Bermain Teknik Gitar Legato


TUTORIAL GITAR LENGKAP - Cara Bermain Teknik Gitar Legato. Legato adalah teknik gitar yang cukup populer di kalangan gitaris tingkat menengah keatas. Pengertian dari legato sendiri adalah sebuah istilah musik yang berasal dari bahasa Italia yang berarti diikat. Dalam istilah musik legato berarti menyanyikan beberapa not secara berurutan dalam satu waktu. Atau istilah lainya adalah membunyikan satu nada ke nada lainya tanpa berhenti.

Secara teknis teknik gitar legato adalah sebuah gabungan antara teknik gitar hammer-on dan teknik gitar pull-off. Jadi apabila anda ingin mempelajari teknik gitar legato ini, ada baiknya anda menguasai teknik gitar hammer-on dan pull-off terlebih dahulu.

Baca artikel referensi cara bermain teknik hammering dibawah ini :
 - Cara belajar teknik gitar hammer-on
 - Cara belajar teknik gitar pull-off

Selanjutnya jika anda memang sudah menguasai teknik gitar hammer-on dan pull-off silahkan langsung ikuti panduan cara bermain teknik gitar legato dibawah ini.

Cara Belajar Bermain Teknik Gitar Legato


Disini caragitar.com akan memberikan tutorial dalam bentuk sebuah tab gitar, jika sebelumnya anda belum bisa membaca tab gitar, saya sarankan anda belajar membaca tab gitar terlebih dahulu :
 - Cara belajar membaca tab gitar untuk pemula

Contoh penerapan teknik gitar legato :

e|----5h7h8p7p5---------------------------------------|
B|----------------------------------------------------|
G|----------------------------------------------------|
D|----------------------------------------------------|
A|----------------------------------------------------|
E|----------------------------------------------------|


Penjelasan tab gitar :
 - Tekan senar 1(senar kecil/paling bawah) pada kolom 5 dengan jari telunjuk kiri, kemudian tanpa memetiknya lagi tekan senar 1 pada fret ke-7 dengan menggunakan jari tengah kiri, kemudian tekan lagi senar 1 fret ke-8 dengan menggunakan jari manis kiri, selanjutnya lepaskan jari manis kiri sehingga yang tersisa adalah jari tengah menekan senar 1 fret ke-7 (lepaskan sampai timbul bunyi/suara) terakhir lepaskan jari tengah kiri sehingga yang tersisa adalah jari telunjuk menekan senar 1 fret ke-5.

Perlu anda ingat bahwa disini kita hanya sekali memetik senar, dan selanjutnya biarkan jari tangan kiri kita yang bekerja. Agar jari tangan kiri kita bisa membunyikan senar, anda harus menekan/memukul pada saat hammer-on (h) dan menarik pada saat pull-off (p).


Contoh latihan teknik gitar legato :

Mainkan tab gitar dibawah ini seperti contoh latihan diatas (tetap gunakan teknik hammer saat nada naik dan pull-off saat nada turun).

e|-----------5--7--8--7--5----------
b|---------------------------8------
g|----------------------------------
d|----------------------------------
a|----------------------------------
e|----------------------------------

e|---------------5--------------------------
b|------5--6--8-----8--6--5-----------------
g|---7--------------------------------------
d|------------------------------------------
a|------------------------------------------
e|------------------------------------------

e|--15-12----12---------------------------------
b|--------15----15-12-15-12----12---------------
g|--------------------------14----14-12-14-12---
d|--------------------------------------------14
a|----------------------------------------------
e|----------------------------------------------

e|-----------------------------------------------------
b|-----------------------------------------------------
g|--12-------------------------------------------------
d|-----14-12-14-12----12-------------------------14~---
a|-----------------14----14-12-14-12----12-------------
e|-----------------------------------15----15-12-------

e|---------------------3-4-3-------------------
b|-----------------2-3-------3-2---------------
g|-------------2-4---------------4-2-----------
d|---------1-4-----------------------4-1-------
a|-----1-3-------------------------------3-1---
e|-1-2---------------------------------------2-1

e|-----------------------------------------------------
b|-------------------------------------------------6-8-
g|-------------------------------------4-5-7/5-7-9-----
d|-------------2-----------2-4-5/4-5-7-----------------
a|-------2-3-5---5-3-2-3-5-----------------------------
e|-2-3-5-----------------------------------------------

e|----6-8-10/12-10-8------------------10-12-14-15~-
b|-10----------------12-10-8/10-12-14--------------
g|-------------------------------------------------
d|-------------------------------------------------
a|-------------------------------------------------
e|-------------------------------------------------


Teknik ini akan sangat luar biasa jika dimainkan dengan ketepatan dan kecepatan yang tinggi. Kelebihan dari teknik ini adalah kita bisa memainkan melodi-melodi yang mempunyai kecepatan tinggi. Beberapa gitaris ternama juga banyak yang menggunakan teknik gitar legato ini, antara lain Joe Satriani, Steve Vai, Steve Morse, dll.

Video tutorial teknik legato untuk pemula

Jika anda masih kurang paham dengan semua penjelasan diatas, anda bisa memepelajari dengan melihat video tutorialnya dibawah ini :


Jika ada pertanyaan seputar teknik gitar legato ini silahkan tinggalkan komentar anda di bagian bawah artikel.


Artikel terkait :
 - Belajar teknik petikan dalam bermain gitar
 - Belajar teknik gitar alternate picking
 - Tips membeli dan memilih gitar akustik
 - Tips saat memilih efek gitar 

Referensi: id.wikipedia.org/wiki/Legato

No comments:

Post a Comment