Saturday, February 15, 2014

Cara Membaca Tab Gitar Untuk Pemula


CARAGITAR.com - Cara Membaca Tab Gitar Untuk Pemula. Jika bermain piano kita ada sebuah notasi balok, maka di gitar kita dapat menemukan apa yang disebut Tab gitar (tablature). Tab gitar sendiri adalah sebuah media penyampai informasi tentang cara memainkan melodi gitar.


Notasi Balok & Tab Gitar

Tab gitar hampir sama dengan sebuah notasi balok, yang membedakan hanyalah jika notasi balok ada sebuah tempo, yaitu lama atau tidaknya sebuah 1 nada dimainkan (misal: 1 ketukan, 2 ketukan, 1/4 ketukan, dll) maka di tab gitar hal tersebut tidaklah ada. Ya, di tab gitar kita tidak bisa memberikan informasi tempo sebuah melodi.

Perbedaan lain antara notasi balok dan tab gitar adalah lambang/angka yang digunakan. Jika pada notasi balok kita dapat menemukan lambang-lambang yang mengartikan kita harus memainkan nada do atau re, maka di tab gitar yang ada hanyalah angka yang mengartikan kita untuk membunyikan sebuah senar ke bla...bla...bla... kolom bla...bla...bla...


belajar tab gitar untuk pemula

Belajar Dasar Tab Gitar

Langsung ke pokok persoalan yaitu cara belajar membaca tab gitar. Dibawah ini adalah sebuah contoh tab gitar sederhana.

Contoh tab gitar 1 :
E|---2--------------------|
B|---3--------------------|
G|---2--------------------|
D|------------------------|
A|------------------------|
E|------------------------|

 
Cara memainkan tab gitar 1 :
 - Tekan senar 1 pada fret ke 2, senar 2 pada fret ke 3 dan senar 3 pada fret ke 2. 
 - Bunyikan secara bersamaan. (yang dibunyikan hanyalah senar 1, 2 dan 3)
 - Jika kita lihat, maka tab gitar diatas sama saja dengan anda memainkan kunci D 
 

Contoh tab gitar 2 :
E|------------------------|
B|---1--3--5--6--8--------|
G|------------------------|
D|------------------------|
A|------------------------|
E|------------------------|

Cara memainkan tab gitar 2 :
 - Tekan senar 2 pada fret ke 1 dan bunyikan (petik)
 - Tekan senar 2 pada fret ke 3 dan petik
 - Tekan senar 2 pada fret ke 5 dan petik
 - Tekan senar 2 pada fret ke 6 dan petik
 - Tekan senar 2 pada fret ke 8 dan petik
 - Jika kita dengar, maka tab gitar diatas akan berbunyi nada Do Re Mi Fa Sol


Contoh tab gitar 3 : 
E|---------0--1--3--5--7--8---|
B|---1--3---------------------|
G|----------------------------|
D|----------------------------|
A|----------------------------|
E|----------------------------|
 
 
Cara memainkan tab gitar 3 :
 - Tekan senar 2 pada fret ke 1 dan petik
 - Tekan senar 2 pada fret ke 3 dan petik
 - Tekan senar 1 pada fret 0 (loss) dan petik
 - Tekan senar 1 pada fret ke 1 dan petik
 - Tekan senar 1 pada fret ke 3 dan petik
 - Tekan senar 1 pada fret ke 5 dan petik
 - Tekan senar 1 pada fret ke 7 dan petik
 - Tekan senar 1 pada fret ke 8 dan petik
 - Hasilnya, kita akan mendengar nada Do Re Mi Fa Sol La Si Do dari tab gitar 
diatas.



Cukup mudah bukan? Bagi anda yang baru saja mempelajari & baru sekali 
belajar cara membaca tab gitar mungkin anda akan merasa susah, tapi
lama kelamaan jika anda sudah terbiasa maka akan sangat mudah untuk
membaca dan mempraktekanya secara
bersamaan.
 
 
Pengertian Lambang Pada Tab Gitar 

h = hammer on
p = pull off
b = bend string up
r = release bend
/ = slide up
\ = slide down
v = vibrato (kadang juga ditulis ~)
t = taping
s = legato slide
S = Shift slide
[n]  = artificial harmonic
n(n) = tapped harmonic
t  = trill
T  = tapp
TP = tremolo picking
PM = palm muting



 Contoh Latihan Tab Gitar Untuk Pemula :


Latihan tab gitar melodi lagu Sweet Child O Mine - Guns n Roses

E|-------------15----14----|-------------15----14----|
B|----15-------------------|----15-------------------|
G|-------14-12----14----14-|-------14-12----14----14-|
D|-12----------------------|-12----------------------|
A|-------------------------|-------------------------|
E|-------------------------|-------------------------|



E|-------------15----14----|-------------15----14----|
B|----15-------------------|----15-------------------|
G|-------14-12----14----14-|-------14-12----14----14-|
D|-14----------------------|-14----------------------|
A|-------------------------|-------------------------|
E|-------------------------|-------------------------|



E|-------------15----14----|-------------15----14----|
B|----15-------------------|----15-------------------|
G|-12----14-12----14----14-|-12----14-12----14----14-|
D|-------------------------|-------------------------|
A|-------------------------|-------------------------|
E|-------------------------|-------------------------|




Sangat mudah sekali bukan? Yang terpenting jika anda mempelajari sebuah
tab gitar adalah anda harus sering-sering berlatih, karena semakin sering
anda berlatih tab gitar, maka semakin cepat reflek anda dari melihat tab
dan mempraktekannya langsung ke gitar. Jadi kita tidak perlu memikirkan 
lagi senar mana dan pada kolom berapa nada harus dimainkan.
 
Terima kasih telah membaca artikel tutorial ini. Jika ada hal yang ingin
Anda tanyakan silahkan tinggalkan komentar anda dibawah.
 
Artikel terkait :
- Cara Bermain Melodi Intro Boomerang Pelangi
- Cara Bermain Petikan Gitar Creed One Last Breath
- Cara Bermain Kunci Balok
- Kunci Gitar Tegar Aku Yang Dulu
- Cara Bermain Petikan Killing Me Inside Tormented 

Referensi: images.google.com Tags: cara membaca tab untuk pemula
cara membaca tab gitar, cara belajar tab gitar pemula, belajar tab gitar
pemula, tips trik belajar tab gitar, tutorial tab gitar pemula, cara bermain 
tab gitar untuk pemula, tab gitar 

12 comments:

  1. 12--14--12---14----14---
    It artinyaa gmna

    ReplyDelete
    Replies
    1. 12--14--12---14----14--- artinya kurang lebih begini :

      Bunyikan senar dengan tangan kanan pada saat jari tangan kiri memencet senar pada fret/kolom ke 12, kemudian bunyikan lagi pada fret ke 14, kemudian 12, 14 dan terakhir bunyikan senar dengan posisi jari tangan kiri memencet senar pada fret ke 14.

      Coba baca di awal artikel :)

      Delete
  2. Masih belum ngerti gan

    ReplyDelete
  3. antara senar e a d g b e.. yg di petik dahulu dan seterusnya blm faham gan

    ReplyDelete
  4. Gan , itu fret k 14 setelah fret 15 lada senar e seharus ny d letak di senar b pada fret 14 , coba d mainin baru tau letak salah ny gan

    ReplyDelete
  5. Untuk melihat patokan temponya gimana ya?
    jika tidak ada partitur seperti gambar paling atas?

    ReplyDelete
  6. Terima kasih brother.. Sangat membantu saya dalam belajar🙏

    ReplyDelete
  7. Menurutku ini tablatur yang mudah di pelajari dari pada not balok iakan...!?

    ReplyDelete
  8. Makasih gan sy sudah ngerti cma masih kaku jariku

    ReplyDelete