Tuesday, February 11, 2014

Cara Bermain Petikan Killing Me Inside Tormented


CARAGITAR.com - Cara Bermain Petikan Killing Me Inside Tormented.  Killing me Indide, siapa yang tidak kenal dengan band Indonesia yang satu ini, lagu-lagunya yang sangat indah dan seakan membawa energi membuat sebagian orang tergila-gila dengan band yang satu ini.

Kali ini CARAGITAR akan memberikan tutorial tentang cara bermain intro petikan pada lagu Killing me inside yang berjudul The Tormented. Petikan intro lagu tormented dimainakn dengan menggunakan gitar tanpa efek atau juga bisa dimainkan dengan menggunakan piano. Tapi mungkin tidak semua orang/grup musik mempunyai personil piani, makan dari itu intro tormented bisa dimainkan dengan menggunakan gitar.

cara bermain petikan gitar tormented

Oke langsung saja dibawah ini adalah tutorial cara bermain petikan intro tormented killing me inside. Pada tutorial kali ini saya akan menjelaskan dengan menggunakan tab gitar (tablature), jika anda belum bisa membaca tab gitar silahkan baca artikel > cara membaca tab gitar.

Cara Bermain Petikan Intro Tormented Killing me Inside

Setem/Tune gitar anda dengan tune Drop D (cara setem gitar drop D)

Tab gitar intro killing me inside tormented :

intro:
e|-------------------------------------------|
B|-------------------------------------------|
G|----------2-----------------------2-0------|
D|----0-2-3---3-5-2------0-2-3----------3----|
A|---0-0-0-0-0-0-0-0----1-1-1-1----3-3-3-3---|
D|--0-----------------0----------0-----------|

e|-------------------------------------------|
B|-------------------------------------------|
G|----------5----------------------2-0-------|
D|----0-2-3---3-5-2------0-2-3---------3-----|
A|---0-0-0-0-0-0-0-0----1-1-1-1---3-3-3-3----|
D|--0------------------0---------0-----------|

e|-------------------------------------------|
B|-------------------------------------------|
G|----------2-----------------------2-0------|
D|----0-2-3---3-5-2------0-2-3----------3----|
A|---0-0-0-0-0-0-0-0----1-1-1-1----3-3-3-3---|
D|--0-----------------0----------0-----------|

e|-------------------------------------------|
B|-------------------------------------------|
G|----------5----------------------2-0-------|
D|----0-2-3---3-5-2------0-2-3---------3-----|
A|---0-0-0-0-0-0-0-0----1-1-1-1---3-3-3-3----|
D|--0------------------0---------0-----------| 
 
Cukup mudah bukan cara bermain intro killing me inside tormented. JIka ada hal yang 
ingin anda tanyakan silahkan tinggalkan komentar anda dibawah. Terima kasih telah 
membaca artikel cara bermain intro tormented.
 
Artikel terkait: 
- Cara Bermain Melodi Sweet Child O' Mine
- Cara Latihan Senam Jari Bermain Gitar
- Tips Cara Membersihkan Gitar
- Cara Bermain Kunci Gitar Bm
- Cara Bermain Kunci Gitar Am

Referensi: ultimate-guitar.com Tags: cara bermain melodi tormented
cara bermain petikan tormented, cara bermain intro torment
tips cara tutorial bermain lagu killing me inside tormented

3 comments:

  1. Gan tab nya dibaca dari atas ke bawah atau dari bawah ke atas

    ReplyDelete
  2. Gan baca tabnya dari bawah ke atas atau dari atas kebawah?

    ReplyDelete
  3. Izin jawab
    dari bawah ke atas gan

    ReplyDelete