Thursday, February 13, 2014

Cara Bermain Melodi Intro Boomerang Pelangi


CARAGITAR.com - Cara Bermain Melodi Intro Boomerang Pelangi. Boomerang, siapa yang tak kenal dengan band fenomenal dari Indonesia ini. Dengan mengusung lagu beraliran hard rock band ini sangat terkenal di Indonesia, bukan hanya di dalam negeri di luar negeri pun banyak juga yang mengenal band Boomerang.

Salah satu lagu boomerang yang paling banyak disukai oleh sebagian orang Indonesia adalah lagu berjudul Pelangi. Jika kita mendengarkan lagu ini, diri kita seakan terbius kembali ke masa lalu #lebay.

Kali ini CARAGITAR akan memberikan tutorial cara bermain intro pelangi boomerang. Untuk sekedar anda ketahui, intro lagu pelangi boomerang dimainkan dengan mengunakan gitar dan sedikit efek distorsi, bagi anda yang sedang ingin mempelajarinya, saya sarankan anda menggunakan gitar elektrik dan dilengkapi dengan efek distorsi.

cara main intro pelangi boomerang


Pada tutorial ini seperti biasa akan saya sampaikan dengan menggunakan media tab gitar, karena selain lebih efektif, tab gitar adalah media penyampai informasi yang paling banyak dipakai oleh gitaris. Jika sebelumnya anda belum bisa membaca tab gitar, silahkan baca artikel ini untuk mencari tahu cara membaca tab gitar :
 - Cara membaca tab gitar

Langsung saja dibawah ini adalah tutorial cara bermain melodi intro boomerang pelangi.




E||-------------------------|---------------------|-----------------------|
B||-------------------8--7--|------------------7--|--7h--8--------L-------|
G||-------------------------|--9------------9-----|------------------9----|
D||----------------/9-------|---------------------|-----------------------|
A||-------------------------|---------------------|-----------------------|
E||-------------------------|---------------------|-----------------------|


-------------------------------|-------------------------|---------------------|
-------------------------------|-------------------8--7--|------------------7--|
--7--------L--7h-9p-7----------|-------------------------|--9------------9-----|
----------------------9--5--5s-|--L--7--------L-/9-------|---------------------|
-------------------------------|-------------------------|---------------------|
-------------------------------|-------------------------|---------------------|



-----------------------------|-------------------------|
--7h--8s--------(10)--10b----|--(10)------------10--8--|
-----------------------------|-------------------------|
-----------------------------|-------------------------|
-----------------------------|-------------------------|
-----------------------------|-------------------------|

  
------------------------|---------------------|-----------------------|
--7--------L------8--7--|------------------7--|--7h--8--------L-------|
------------------------|--9------------9-----|------------------9----|
---------------/9-------|---------------------|-----------------------|
------------------------|---------------------|-----------------------|
------------------------|---------------------|-----------------------|

-------------------------------|-------------------------|
-------------------------------|-------------------------|
--7--------L--7h-9p-7----------|-------------------7-----|
----------------------9--5--5s-|--L--7--------L-/9----9--|
-------------------------------|-------------------------|
-------------------------------|-------------------------|

   
------------------------|-----------------------------|
---------------------7--|--7h--8s--------(10)--10b----|
--7h--9--------L--9-----|-----------------------------|
------------------------|-----------------------------|
------------------------|-----------------------------|
------------------------|-----------------------------|


-------------------------|------------------------------|
--(10)------------10--8--|--7--------L--7h-8p-7---------|
-------------------------|----------------------9--7--L-|
-------------------------|------------------------------|
-------------------------|------------------------------|
-------------------------|------------------------------|


    
------------7------------|----------------------|-----------7-----------|
---------8-------8----L--|--L----L----L----L----|--------8-------8------|
--7h-9-------------------|----------------------|-----7--L--------------|
-------------------------|----------------------|--9--------------------|
-------------------------|----------------------|-----------------------|
-------------------------|----------------------|-----------------------|


 
-------------------|-----------7--------L--|--L----------------|
--L----------------|--------7--------------|-------------------|
-------------------|-----7-----------------|-------------------|
-------------------|--9--------------------|-------------------|
-------------------|-----------------------|-------------------|
-------------------|-----------------------|-------------------|

    
------------8--------L--|--L----------------|-----------7-----------|
---------8--------------|-------------------|--------8-------8------|
------9-----------------|-------------------|--9--------------------|
--10--------------------|-------------------|-----9-----------------|
------------------------|-------------------|-----------------------|
------------------------|-------------------|-----------------------|



-------------------|-----------7-----------|-------------------|
--L----------------|--------8-------8------|--L----------------|
-------------------|-----7--L--------------|-------------------|
-------------------|--9--------------------|-------------------|
-------------------|-----------------------|-------------------|
-------------------|-----------------------|-------------------|


 
-----------7--------L--|--L----------------|------------8--------L--|
--------7--------------|-------------------|---------8--------------|
-----7-----------------|-------------------|------9-----------------|
--9--------------------|-------------------|--10--------------------|
-----------------------|-------------------|------------------------|
-----------------------|-------------------|------------------------|


  
--------------------------|---------------------|-----------------------|
--7-----7-----------8--7--|------------------7--|--7h--8--------L-------|
--7-----7-----------------|--9------------9-----|------------------9----|
--7-----7--------/9-------|---------------------|-----------------------|
--------------------------|---------------------|-----------------------|
--------------------------|---------------------|-----------------------|



-------------------------------|--------------------------|
-------------------------------|--------------------------|
--7--------L--7h-9p-7----------|--------------------7-----|
----------------------9--5--5s-|--L--7--------L--/9----9--|
-------------------------------|--------------------------|
-------------------------------|--------------------------|



------------------------|-----------------------------|
---------------------7--|--7h--8s--------(10)--10b----|
--7h--9--------L--9-----|-----------------------------|
------------------------|-----------------------------|
------------------------|-----------------------------|
------------------------|-----------------------------|
    

-------------------------|-----------------------7h-8h-10s-12-12-|
--(10)------------10--8--|--7--------L--7h-8h-10-----------------|
-------------------------|---------------------------------------|
-------------------------|---------------------------------------|
-------------------------|---------------------------------------|
-------------------------|---------------------------------------|



--L-------------------|-------------------|-----------7-----------|
---------12--------L--|--L----------------|--------8-------8------|
----------------------|-------------------|-----7--L--------------|
----------------------|-------------------|--9--------------------|
----------------------|-------------------|-----------------------|
----------------------|-------------------|-----------------------|



-------------------|-----------7--------L--|--L----------------|
--L----------------|--------7--------------|-------------------|
-------------------|-----7-----------------|-------------------|
-------------------|--9--------------------|-------------------|
-------------------|-----------------------|-------------------|
-------------------|-----------------------|-------------------|



------------8--------L--|--L----------------|-----------7-----------|
---------8--------------|-------------------|--------8-------8------|
------9-----------------|-------------------|--9--------------------|
--10--------------------|-------------------|-----9-----------------|
------------------------|-------------------|-----------------------|
------------------------|-------------------|-----------------------|



-------------------|-----------7-----------|-------------------|
--L----------------|--------8-------8------|--L----------------|
-------------------|-----7--L--------------|-------------------|
-------------------|--9--------------------|-------------------|
-------------------|-----------------------|-------------------|
-------------------|-----------------------|-------------------|



-----------7--------L--|--L----------------|------------8--------L--|
--------7--------------|-------------------|---------8--------------|
-----7-----------------|-------------------|------9-----------------|
--9--------------------|-------------------|--10--------------------|
-----------------------|-------------------|------------------------|
-----------------------|-------------------|------------------------|


Artikel terkait:
- Cara Bermain Petikan Gitar Creed One Last Breath
- Cara Bermain Kunci Balok
- Kunci Gitar Tegar Aku Yang Dulu
- Cara Bermain Petikan Killing Me Inside Tormented
- Cara Bermain Kunci Gitar Bb


Referensi: wikipedia.org, images.google.com, bekasi1980.blogspot.com Tags: cara bermain melodi boomerang, cara melodi pelangi boomerang, tab gitar melodi pelangi boomerang, cara main intro boomerang pelangi, kunci chord gitar boomerang pelangi, tutorial gitar pelangi boomerang.

5 comments:

  1. Request petikan melodi MENGHITUNG HARI Brow.

    ReplyDelete
    Replies
    1. Oke gan, diproses order-nya
      silahkan ditunggu

      Delete
    2. Artikel sudah diproses dan sudah diterbitkan, klik > Krisdayanti - Menghitung Hari

      Delete