Friday, October 4, 2013

Cara Bermain Melodi Sweet Child O' Mine - Guns N' Roses


CARAGITAR.com - Cara Bermain Melodi Sweet Child O' Mine. Guns N' Roses, siapa yang tidak kenal dengan band legendaris di tahun 80 dan 90an ini. Bahkan sekarang pun band ini juga masih eksis. yahh..., Guns N' Roses adalah band beraliran musik HardRock asal Amerika. Band ini berdiri sejak tahun 1984 dan berdiri resmi sejak bulan Maret 1985.

Salah satu lagu yang mungkin paling banyak dikenal oleh masyarakat luas adalah hits Sweet Child O'mine, lagu ini dirilis di album 1987 Appetite for Destruction. Salah satu bagian yang paling mudah diingat dari lagu ini adalah melodi intronya. Dengan keahlian bermain gitar Slash melodi ini seolah menjadi sihir bagi kalangan orang yang pernah mendengarkanya.

cara main melodi guns n roses


Mungkin sebagian dari anda para gitaris belum terlalu menguasai dan mendalami lagu ini. Mulai dari melodi intronya sampai melodi di tengah-tengah lagu. Oke kali ini kita akan membahas tentang cara bermain melodi sweet child o'mine.

Langsung saja dibawah ini adalah tutorial yang telah saya buat untuk berlatih dan menguasai melodi intro sweet child o'mine.


1. Ambil gitar anda.

2. Setem/Setel/Tune gitar anda sesuai dengan setelan Standard EADGBE.

3. Pastikan anda sudah bisa membaca tab gitar, jika anda belum bisa membaca tab gitar, silahkan klik disini untuk mempelajari cara membaca tab gitar.

4. Mempelajari tab gitar Sweet Child O'Mine



Artist: Guns N' Roses
Title: Sweet Child O' Mine
Album: Appetite For Destruction
Tabbed by: Rodrigo Gonzaga

Comments and questions: rod.gonzaga@zipmail.com.br


INTRO:
  
    D
E:|--------------15----14-----|--------------15----14-----|
B:|-----15--------------------|-----15--------------------|
G:|--------14-12----14----14--|--------14-12----14----14--|
D:|--12-----------------------|--12-----------------------|
A:|---------------------------|---------------------------|
E:|---------------------------|---------------------------|
    C                        
E:|--------------15----14-----|--------------15----14-----|
B:|-----15--------------------|-----15--------------------|
G:|--------14-12----14---14---|--------14-12----14----14--|
D:|--14-----------------------|--14-----------------------|
A:|---------------------------|---------------------------|
E:|---------------------------|---------------------------| 

(PLAY TWO TIMES AND THEN GO TO THE FINISH PART) 
    G                              
E:|--------------15----14-----|--------------15----14-----|
B:|-----15--------------------|-----15--------------------|
G:|--12----14-12----14----14--|--12----14-12----14----14--|
D:|---------------------------|---------------------------|
A:|---------------------------|---------------------------|
    D
E:|--------------15----14-----|--------------15----14-----|
B:|-----15--------------------|-----15--------------------|
G:|--------14-12----14----14--|--------14-12----14----14--|
D:|--12-----------------------|--12-----------------------|
A:|---------------------------|---------------------------|
E:|---------------------------|---------------------------|
 
   Intro finished (after intro twice) 

    D
E:|--------------15----14-----|--------------15----14-----|
B:|-----15--------------------|-----15--------------------|
G:|--------14-12----14----14--|--------14-12----14----14--|
D:|--12-----------------------|--12-----------------------|
A:|---------------------------|---------------------------|
E:|---------------------------|---------------------------! 
    C
E:|--------------15----14-----|--------------15----14-----|
B:|-----15--------------------|-----15--------------------|
G:|--------14-12----14----14--|--------14-12----14----14--|
D:|--14-----------------------|--14-----------------------|
A:|---------------------------|---------------------------|
E:|---------------------------|---------------------------

E:|--------------15----14-----|--------------15----14-----|
B:|-----15--------------------|-----15--------------------|
G:|--12----14-12----14----14--|--12----14-12----14----14--|
D:|---------------------------|---------------------------|
A:|---------------------------|---------------------------|
E:|---------------------------|---------------------------|

E:|--12------------12----14---|--15----14----12---------------14---|
B:|---------15----------------|---------------------15--------15---|
G:|-----14------14----14---14-|-----14----14----14------14----14---|
D:|---------------------------|------------------------------------| 
A:|---------------------------|------------------------------------| 
E:|---------------------------|------------------------------------| 
Verse: Four strings arpeggio with the chords D C G D (twice) 


Chorus: 
   A5                          C5 
E:|---------------------------|--------------12----10-----|
B:|--14-14-------15----14-----|--13-13--------------------|
G:|--------14-------14----14--|--------12-10----12----12--|
D:|-----------14--------------|---------------------------|
A:|---------------------------|---------------------------|
E:|---------------------------|---------------------------| 
   D5                          D5
E:|--------------15----14-----|--------------15---14-----|
B:|-----15--------------------|-----15-------------------|
G:|--------14-12----14----14--|--------14-12---14----14--|
D:|--12-----------------------|--12----------------------|
A:|---------------------------|--------------------------|
E:|---------------------------|--------------------------| 
   A5                          C5
E:|---------------------------|--------------12----10-----|
B:|--14-14-------15----14-----|--13-13--------------------|
G:|--------14-------14----14--|--------12-10----12----12--|
D:|-----------14--------------|---------------------------|
A:|---------------------------|---------------------------|
E:|---------------------------|---------------------------|
   D5                          D5
E:|---------------------------|---------------------------|
B:|--------15-----------------|---------------------------|
G:|--12/14--------------------|---------------------------|
D:|---------------------------|---------------------------|
A:|---------------------------|---------------------------|
E:|---------------------------|---------------------------



FILL1:

e:|----------------------------------------------------------------------------------|
B:|----------------------------------------------------------------------------------|
G:|---14--12---11~-----14--12---11~-----14--12-----------14--12-----------14\12------|
D:|----------------------------------------------14~--------------14~----------------|
A:|----------------------------------------------------------------------------------|
E:|----------------------------------------------------------------------------------|

e:|----------------------------------------------------------------------------------|
B:|------------------------15---15b17r15---------------------------------------------|
G:|--14b16r14--12--14b15-------------------------------------------------------------|
D:|----------------------------------------14b16-hold!-------------------------------|
A:|----------------------------------------------------------------------------------|
E:|----------------------------------------------------------------------------------|

FILL2:

e:|----------------------------------------------------------------------------------|
B:|----------------------------------------------------------------------------------|
G:|---14--12---11~-----14--12---11~-----14--12-----------14--12-----------14\12------|
D:|----------------------------------------------14~--------------14~----------------|
A:|----------------------------------------------------------------------------------|
E:|----------------------------------------------------------------------------------|


e:|-----------------------------------------10---------------------------------------|
B:|----------------------------------------------------------------------------------|
G:|---14\12---11b12r11-----11b13-hold!--------r11~~~~--------------------------------|
D:|--------------------12------------------------------------------------------------|
A:|----------------------------------------------------------------------------------|
E:|----------------------------------------------------------------------------------|


e:|----------------------------------------------------------------------------------|
B:|---------------------------------------------15---15\13-------/17-----------------|
G:|---14--12---11~-----14--12---11---/14b15------------------------------------------|
D:|----------------------------------------------------------------------------------|
A:|----------------------------------------------------------------------------------|
E:|----------------------------------------------------------------------------------|


e:|----------------------------------------------------------------------------------|
B:|---17--17\15---15\13-----12b13r12-------------------------------------------------|
G:|-----------------------------------12---------------------------------------------|
D:|---------------------------------------12~~~~~------------------------------------|
A:|----------------------------------------------------------------------------------|
E:|----------------------------------------------------------------------------------|


e:|-------------------------------------------------------17---HOLD!-----------------|
B:|--------------------------15---15b17r15-----17b19-r17-------HOLD!-----------------|
G:|---14b15r14-p12--14b16------------------------------------------------------------|
D:|----------------------------------------------------------------------------------|
A:|----------------------------------------------------------------------------------|
E:|----------------------------------------------------------------------------------|


SOLO1: [with a little practice...]

E:|---17b19-hold!----15--14--h15p14---------15--14--h15p14-----------12--14----------|
B:|----------------------------------17~~~-------------------17-16-------------------|
G:|----------------------------------------------------------------------------------|
D:|----------------------------------------------------------------------------------|
A:|----------------------------------------------------------------------------------|
E:|----------------------------------------------------------------------------------| 


E:|----------------------------------------------------------------------------------|
B:|--15b17--12-------------------------------------------13-12--------13p12\10-------|
G:|------------14b16--12--11h12-----------------11-12-14-----------------------------|
D:|------------------------------14---14---------------------------------------------|
A:|----------------------------------------------------------------------------------|
E:|----------------------------------------------------------------------------------|


E:|------------------------------------------------15b17~~~--------------------------|
B:|--13b15---13-----12--12~~-------12b14r12------------------------------------------|
G:|-------------------------------------------14-------------------------------------| 
D:|----------------------------------------------------------------------------------|
A:|----------------------------------------------------------------------------------|
E:|----------------------------------------------------------------------------------|

E:|----------------------------------------------------------------------------------------|
B:|--7b9r7------------7b8r7----------------------------------------------------------------|
G:|---------9--9~~-----------9--9~----8b10---8----/11-----11b13r11-----9--------------9~~--|
D:|----------------------------------------------------------------------9b11---7---9------|
A:|----------------------------------------------------------------------------------------|
E:|----------------------------------------------------------------------------------------|

E:|------------------------------------------------------------------------|
B:|---7h8-p7---------------------------------------------7b9-----7-10b12---|
G:|-------------9-----8b9---8------/11-----9b10--8-9----------9------------|
D:|------------------------------------------------------------------------|
A:|------------------------------------------------------------------------|
E:|------------------------------------------------------------------------|

E:|-7-8p7-11p7-8-11-12/14-11-12--14/15-12-14-15p14-12----14p11-12h14p12---|
B:|---------------------------------------------------15----------------15|
G:|-----------------------------------------------------------------------|
D:|-----------------------------------------------------------------------|
A:|-----------------------------------------------------------------------|
E:|-----------------------------------------------------------------------|

E:|-17--------------------------------------------------------------------|
B:|----15^---15^---15^---15^---15^-p12-----15^----15^--------15^-p12------|
G:|------------------------------------14----------------------------14---|
D:|-----------------------------------------------------------------------|
A:|-----------------------------------------------------------------------|
E:|-----------------------------------------------------------------------|

E:|----------------------------------15-----------------------------------|
B:|--17^---17^--------17^----17^----------17^---------17^-p15--15h17------|
G:|-------------------17^-------------------------------------------------|
D:|-----------------------------------------------------------------------|
A:|-----------------------------------------------------------------------| 
E:|-----------------------------------------------------------------------| 

E:|-----------12----------------------------------------------------------|
B:|-15^------------15---12------------------------------------------------|
G:|---------------------------14^-p12-14---12-14----12--14^----12--14--12-|
D:|-----------------------------------------------------------------------|
A:|-----------------------------------------------------------------------|
E:|-----------------------------------------------------------------------|

E:|----15-------------15-----15-----15------------------------------------|
B:|----15-------15----15-----15-------15----------------------------------|
G:|-14^--14--12-14^-----14^----14^------14^-p12----14p12--x-x----12^------|
D:|---------------------------------------------14--------x-x-------------|
A:|-----------------------------------------------------------------------|
E:|-----------------------------------------------------------------------|

E:|-----------------------------------------------------------------------|
B:|-----------------------------------------------------------------------|
G:|-----------------12h14p12----12^--------------------12h14p12-----12-12-|
D:|-14p12-14----x-x----------14--------14p12-14----x-x----------14--------|
A:|-----------------------------------------------------------------------|
E:|-----------------------------------------------------------------------|


E:|----------------------------------------------12-12-------15-15p12--15-|
B:|-------------------12-12-------15-15p12-------------15p12--------------| 
G:|-------14-14p12-14-------14p12-----------------------------------------| 
D:|-14p12-----------------------------------------------------------------| 
A:|-----------------------------------------------------------------------|
E:|-----------------------------------------------------------------------| 

E:|-14----12h15p12---------12-----------12-----------12-----------12------|
B:|----15----------15--15^----15p12--------15p12-15^----15p12--------15p12| 
G:|----------------------------------14^-----------------------14^--------|
D:|-----------------------------------------------------------------------|
A:|-----------------------------------------------------------------------|
E:|-----------------------------------------------------------------------|

E:|------12-----------12-----------12--------------12-------15b17-hold!---|
B:|--15^----15p12--------15p12-15^----15p12-----12----15p12---------------|
G:|---------------14^-----------------------14^---------------------------|
D:|-----------------------------------------------------------------------|
A:|-----------------------------------------------------------------------|
E:|-----------------------------------------------------------------------|

E:|--------------------15------12h15p12----12------12---------------------|
B:|-------------------------------------15-----15^-----15p12--------------|
G:|-----------------------------------------------------------14^-p12-14^-|
D:|-----------------------------------------------------------------------|
A:|-----------------------------------------------------------------------|
E:|-----------------------------------------------------------------------|

E:|---------------------------------------------------|
B:|-------15------------------------------------------|
G:|----------14^-p12-14^----14p12--------------12\----|
D:|----------------------14-------14------------------|
A:|---------------------------------------------------|
E:|---------------------------------------------------|


Following vocals ad lib over E  F#  G  A  B  C  D  G chord sequence 
Where do we go?_____ Where do we go_____now? 
Where do we go?_____ Where do we go?______ 
Where do we go____now?_____ Where do we go?______ 
Where do we go?_____  CHILD ! 
Where do we go____now? Where do we go______now, 
Now?_________________Where do  we go?


end of Solo 1 going into 2nd solo
w/wah wah      all Palm Mute
|-x-x----x-x---------x-x---------x---x---x--------------------------------|
|-x-x----x-x---------x-x------7--x---x---x--------------------------------|
|-------------------------7h9----x-7-x-----x-x--2p0--x-x---------------7--|
|----x-x-------4--4------------------------x-x-------x-x-7p5--------------|
|----x-x-----------------------------------------------------7p5----------|
|----------------------------------------------------------------7p5s3----|

|-------------------------------------------------------------22B--22-22-22-22-|
|--------------12--------15B--12------------------17-------17------------------|
|-7h9p7h9p7h9--12-----------------14B--12----s18------s18----------------------|
|------------------------------------------------------------------------------|
|------------------------------------------------------------------------------|
|------------------------------------------------------------------------------|

|----17B-17B-17B-17B-17p15---------------12------------------12-------12--------|
|-17------------------------17--17-15B-----15p12-15p12h14p12---15p12----15p12---|
|----------------------------------------------------------------------------14-|
|-------------------------------------------------------------------------------|
|-------------------------------------------------------------------------------|
|-------------------------------------------------------------------------------|

|-12-------12-------12-------12-------12--------12-------------------------|
|---15p12----15p12----15p12----15p12----15p12-----15p12-------15B-15p12----|
|--------14-------14-------14-------14-------14--------14B-12----------14B-|
|--------------------------------------------------------------------------|
|--------------------------------------------------------------------------|
|--------------------------------------------------------------------------|

|-----------------------------------------12------12------------------------|
|-15---------------------------------15B------15B----15p12--15B-15-12-------|
|----14B-12-14-14B-12-14-14-12----------------------------------------14B-12|
|------------------------------14-12----------------------------------------|
|---------------------------------------------------------------------------|
|---------------------------------------------------------------------------|

|---------------------------------------------------------------------------|
|-15B--15--12---------------------------------------------------------------|
|--------------14B--14--12--14B--14B--14--14--14--14S-----------------------|
|-----------------------------------------------------14~~~~~~~-----9~~~~-5-|
|---------------------------------------------------------------------------|
|---------------------------------------------------------------------------|

|------------------------------------------------------|
|------------------------------------------------------|
|------------------------------------------------------|
|------------------------------------------------------|
|-10~~~~~~~~--7~~~~~~--2-------------------------------|
|---------------------------5~~~~~~~~~---3B-------0----|

Notation:
h-hammer-on
p-pull-off
B-bend
b-bend
^-bend
r-release bend
~-vibrato
/-slide up
\-slide down 
s-slide
x-palm mute 



Pelajarilah tab gitar diatas sampai anda benar-benar menguasainya. Jika sudah bisa anda bisa memainkan melodinya sambil mendengarkan lagunya (mengiringinya).

5. Perbanyak lagi latihan jika anda ingin cepat menguasai melodi intro sweet child o' mine.


Oke hanya itu saja cara bermain melodi sweet child o' mine. Jika masih ada yang ingin ditanyakan tentang tutorial diatas, silahkan tinggalkan komentar anda dibawah.

Dan jika anda benar-benar belum bisa menguasai melodi sweet child o mine hanya dari tutorial tertulis diatas, disini saya juga menyediakan video tutorial yang saya ambil dari youtube tentang Cara Bermain Melodi Sweet Child O' Mine.

Langsung saja dibawah ini adalah video tutorial cara bermain melodi sweet child o mine.




Referensi: id.wikipedia.org, snakepit.org, images.google.co.id Tags:  cara bermain melodi guns n roses, cara bermain sweet child o mine, bermain melodi slash, cara mahir melodi sweet child o mine, trik bermain melodi sweet child o mine, melodi gitar sweet child o mine.

3 comments:

  1. Yg angka angka itu maksudnya gimana Sihhhh.... tapi pake gitar akustik

    ReplyDelete
  2. Cara memainkan jika bertemu dgn hurup (r) (p) dll
    Conto nya : 14b15r14-p12--14b16

    ReplyDelete