Saturday, September 28, 2013

Cara Latihan Senam Jari Bermain Gitar


CARAGITAR.com - Senam jari adalah sebuah cara yang digunakan oleh para gitaris untuk melatih kecepatan ketepatan dan kelentikan jari dalam bermain sebuah gitar. Senam jari sangat bermanfaat bagi para gitaris, hal ini biasa dilakukan oleh para gitaris sebelum memulai memainkan lagunya.

Kali ini CARAGITAR.com akan memberikan informasi bagaimana Cara Latihan Senam Jari Bermain Gitar. Hal ini sangat mudah dilakukan tetapi juga membutuhkan kesabaran, karena tidak bisa hanya dilakukan hanya sekali, minimal anda harus melakukanya seminggu sekali, atau lebih baik sehari sekali atau 3x sehari agar jari - jari anda semakin lincah memainkan gitar.

Cara Latihan Senam Jari Bermain Gitar


Oke langsung saja inilah cara bagaimana berlatih senam jari gitar.



Yang perlu diperhatikan saat belajar senam jari adalah teknik up-down strike, yaitu memetik gitar dengan menggunakan pick keatas dan kebawah. Dibawah ini adalah tab yang bisa anda gunakan untuk belajar senam jari gitar.


Jika anda belum bisa membaca tab, silahkan klik disini untuk belajar cara membaca tab gitar

E|----------------------------------------------1-2-3-4---|
B|-------------------------------------1-2-3-4------------|
G|----------------------------1-2-3-4---------------------|
D|-------------------1-2-3-4------------------------------|
A|----------1-2-3-4---------------------------------------|
E|-1-2-3-4-------------------------------------------------|


E|------------------------------------------------------------------------------|
B|------------------------------------------------------------------------------|
G|-------4-------5-------6-------7-------8-------9-------10--------11------|
D|-----3-------4-------5-------6-------7-------8-------9--------10---------|
A|---2-------3-------4-------5-------6-------7-------8--------9-------------|
E|-1-------2-------3-------4-------5-------6-------7--------8---------------|


E|--------------------------------------------------------|
B|--------------------------------------------------------|
G|---------12----------13----------14----------15-----|
D|------11----------12----------13----------14--------|
A|---10----------11----------12----------13-----------|
E|-9----------10----------11----------12--------------|


E|-9-7-8-6------------------------------------------|
B|---------8-6-7-5----------------------------------|
G|-----------------7-5-6-4--------------------------|
D|-------------------------6-4-5-3------------------|
A|---------------------------------5-3-4-2----------|
E|-----------------------------------------4-2-3-1--|


E|-----------------------------------------6-8-7-9--|
B|---------------------------------5-7-6-8----------|
G|-------------------------4-6-5-7------------------|
D|-----------------3-5-4-6--------------------------|
A|---------2-4-3-5----------------------------------|
E|-1-3-2-4------------------------------------------|


E|-9-7-8-6------------------------------------------|
B|---------8-6-7-5----------------------------------|
G|-----------------7-5-6-4--------------------------|
D|-------------------------6-4-5-3------------------|
A|---------------------------------5-3-4-2----------|
E|-----------------------------------------4-2-3-1--|

Ulangilah langkah langkah diatas sampai anda benar benar bisa/menguasainya.

Jika anda masih bingung dengan penjelasan diatas, saya sarankan anda melihat videonya langsung dibawah ini. Tapi perlu anda ketahui bahwa video dibawah ini tidak berdasarkan pada tab gitar diatas.

Video Latihan Senam Jari Gitar


Oke hanya itu saja tutorial cara belajar senam jari. Jika ada hal yang ingin anda tanyakan silahkan tinggalkan komentar anda dibawah. Terima kasih

Referensi : youtube.com Tags: cara belajar senam jari, cara bermain senam jari, belajar senam jari gitar, berlatih senam jari gitar, senam jari gitar listrik, teknik senam jari, cara mempercepat tangan bermain gitar.

2 comments: