Sunday, June 19, 2011

Cara Memainkan Teknik Sliding


Cara Memainkan Teknik Sliding
REBABO cara - Teknik Gitar Sliding. Teknik sliding adalah membunyikan dua nada atau lebih hanya dengan sekali petik. Hampir sama dengan teknik hammering. Perbedaanya adalah teknik sliding cukup dilakukan menggunakan jari yang sama.

Teknik sliding bermacam-macam, mulai dari single sliding sampai dengan power sliding. Single sliding yang biasa dipakai gitaris adalah jari ke-2 dan ke-3. Jari ke-4 jarang digunakan kecuali untuk sliding chord. Lalu apakah Anda sudah bisa memainkanya? Jika belum tenang saja, karena asalkan kita mau berusaha saya yakin Anda akan menguasainya. Dan setelah membaca tutorial di bawah ini saya yakin Anda akan bisa melakukanya.

Disini REBABO cara akan memberikan tutorial cara memainkan/bermain teknik sliding, mulai teknik sliding up, sliding down, chord sliding, dan power sliding. Yang perlu Anda lakukan sekarang adalah mengambil gitar dan mempraktekan apa yang saya tulis dibawah. Langsung saja di bawah ini saya berikan tutorial cara bermain teknik sliding yang saya tuangkan dalam sebuah tab. Jika Anda tidak bisa membaca tab gitar, silahkan klik disini untuk belajar cara membaca tab.


Berikut tab gitar sederhana teknik sliding.


1. Tab teknik sliding up.

e|---5/7-------------------------------------------------|
B|-------------------------------------------------------|
G|-------------------------------------------------------|
D|-------------------------------------------------------|
A|-------------------------------------------------------|
E|-------------------------------------------------------|

Tekan senar 1 pada fret ke-5, petik kemudian geser jari Anda ke fret 7 ( / artinya sliding up ).


Itu adalah contoh sliding up. Anda bisa mencobanya dengan nada yang lain.



2. Tab teknik sliding down.

e|---7\5-------------------------------------------------|
B|-------------------------------------------------------|
G|-------------------------------------------------------|
D|-------------------------------------------------------|
A|-------------------------------------------------------|
E|-------------------------------------------------------|

Tekan senar 1 pada fret ke-5, petik kemudian geser jari Anda ke fret 5 ( \ artinya sliding down ).


3. Tab teknik sliding chord.

e|---2/4-------------------------------------------------|
B|---3/5-------------------------------------------------|
G|---2/4-------------------------------------------------|
D|-------------------------------------------------------|
A|-------------------------------------------------------|
E|-------------------------------------------------------|


Ambilah chord D. petik 3 nada yang ditekan dan geser semua jari Anda itu masing-masing melewati 1 fret kanan (naik) menjadi chord E.


4. Tab teknik power slide.

e|-------------------------------------------------------|
B|-------------------------------------------------------|
G|-------------------------------------------------------|
D|-------------------------------------------------------|
A|-------------------------------------------------------|
E|--1/12-------------------------------------------------|

Tekan senar 6 fret ke-1, petik kemudian geser ke kanan sampai fret 12.

Teknik ini sering dipakai dalam permainan musik Rock dan Metal. Cobalah memakai efek distorsi dan cobalah tab diatas, atau bisa juga sebaliknya yaitu dari fret ke-12 menuju fret ke-1.

Jika Anda sudah menguasai semua teknik diatas cobalah menggabungkan ke-empatnya. Di bawah ini akan saya berikan tab gitar mulai dari slide up sampai power slide yang saya gabungkan menjadi satu. Silahkan disimak.

e|-------------------------------------------------------|
B|--------/10--10-9--9-8--8-6----------------8-10-11-----|
G|--/7--7---------------------7---7------6-9-------------|
D|------------------------------7-----/7-----------------|
A|-------------------------------------------------------|
E|-------------------------------------------------------|

e|-------------------------------------------------------|
B|--------/10--10-9--9-8--8-6----------------8-9-10------|
G|--/7--7---------------------7---7------6-9-------------|
D|------------------------------7-----/7-----------------|
A|-------------------------------------------------------|
E|-------------------------------------------------------|

e|-------------------------------------------------------|
B|--11--11-10-9-8---/15--13--------/17-------------------|
G|-------------------------------------------------------|
D|-------------------------------------------------------|
A|-------------------------------------------------------|
E|-------------------------------------------------------|

e|-------------------------------------------------------|
B|-------------------------------------------------------|
G|-------------------------------------------------------|
D|--------/7--7-6--6-5--5-------------------5-7-8--------|
A|--/5--5-----------------8-5---/5------4-7--------------|
E|----------------------------7------/7------------------|

E|-------------------------------------------------------|
B|-------------------------------------------------------|
G|-------------------------------------------------------|
D|--------/7--7-6--6-5--5-------------------5-6-7--------|
A|--/5--5-----------------8-5---/5------4-7--------------|
E|----------------------------7------/7------------------|

e|-------------------------------------------------------|
B|-------------------------------------------------------|
G|-------------------------------------------------------|
D|--8--8-7-6-5---/12--10--------/14~---------------------|
A|-------------------------------------------------------|
E|-------------------------------------------------------|

e|-------------------------------------------------------|
B|-------------------------------------------------------|
G|-------------------------------------------------------|
D|-------------------------------------------------------|
A|-------------------------------------------------------|
E|--1/12-12-----12/14-14---14/15-------------------------|

e|-----------------------------------15-16-17-18-18------|
B|--------------------------14-15-14---------------------|
G|--14-15-14----------14-15------------------------------|
D|-----------15-14-15------------------------------------|
A|--------------------------------------------------13/5-|
E|-------------------------------------------------------|

Tab by ipur.heavym

Anda boleh meng-copy tab diatas, karena itu adalah buatan saya sendiri, saya mengambilnya beberapa nada-nya dari lagu Avenged Sevenfold berjudul Nightmare. Hanya itu saja yang bisa saya berikan mengenai teknik sliding. Semoga dapat membantu Anda yang sedang belajar bermain gitar. Jika ada yang ingin Anda tanyakan silahkan berikan komentar Anda di bawah. Atau bila ada master gitaris yang ingin menyempurkan tutorial saya diatas, silahkan tinggalkan komentar Anda dibawah, Terima kasih.


Tags : Musik, tips trik bermian gitar, cara memainkan teknik sliding, cara cepat menguasai teknik sliding, mempelajari teknik sliding up, sliding down, chord sliding, power sliding, rahasia teknik sliding, cara agar tidak sakit saat bermain sliding, cara memainkan teknik sliding, menigkatkan kecepatan bermain sliding,  , tips trik cara cepat untuk menguasai teknik gitar sliding.

2 comments: