Saturday, June 18, 2011

Cara Memainkan Teknik Pull-Off


Cara Memainkan Teknik Pull-Off
REBABO cara - Teknik Pull-off adalah nama lain dari hammer-off, yaitu teknik dalam bermain gitar dengan membunyikan dua nada atau lebih dalam sekali petik, berbeda dengan hammer-off, saat bermain hammer-off nada yang dimainkan semakin tinggi, tapi dalam teknik pull-off nada yang dimainkan semakin rendah.

Jika sebelumnya anda belum bisa memainkan teknik hammer-on, klik disini untuk belajar cara memainkan teknik hammer-on. Tapi jika anda sudah menguasainya silahkan melanjutkan dengan teknik Pull-off.

Kali ini REBABO cara akan memberikan tutorial cara memainkan teknik gitar Pull-off. Teknik ini sebetulnya sangat sederhana, yakni dengan membunyikan dua nada atau lebih dalam sekali petik dan dengan nada semakin rendah.

Langsung saja inilah totorial cara memainkan teknik Pull-off, Tapi sebelumnya ambilah gitar anda sambil mempraktekan apa yang saya tulis disini. Di bawah ini adalah tutorial sederhana teknik pull-off yang saya tuliskan dalam sebuah tab :

Contoh :

e|-------------------------------------------------------|
B|-------------------------------------------------------|
G|----8-p7-p6-p5-----------------------------------------|
D|-------------------------------------------------------|
A|-------------------------------------------------------|
E|-------------------------------------------------------|

Petik senar ke-3 pada fret ke-8 dengan menggunakan jari telunjuk, kemudian tanpa memetiknya lagi tekan fret ke-7 pada senar yang sama dengan menggunakan jari manis, dilanjutkan dengan menekan fret ke-6 dan terakhir tekan fret ke-5 (p artinya pull-off).

Ingat anda hanya melakukan satu kali petik saja pada senar ke-3. Jika anda tidak bisa membaca tab, klik disini untuk belajar cara membaca tab.
Latihkan contoh di atas pada waktu yang konstan dan semakin cepat. Ambilah fret yang lain atau senar yang lain untuk anda gunakan berlatih. Mudah sekali bukan melakukan teknik pull-off. Sama seperti teknik hammer-on, tapi nada yang dimainkan semakin rendah.

Di bawah ini saya berikan lagi tab teknik pull-off yang dapat anda gunakan untuk berlatih. Semakin cepat teknik pull-off anda itu akan semakin bagus, tapi anda juga harus memperhatikan tempo.

Tab Teknik Pull-off :

e|-------------------------------------------------------|
B|-------------------------------------------------------|
G|---------------------------------------7-p6-p5-p4------|
D|---------------------------8-p7-p6-p5------------------|
A|---------------9-p8-p7-p6------------------------------|
E|--10-p9-p8-p7------------------------------------------|

e|--------------5-p4-p3-p2-------------------------------|
B|--6-p5-p4-p3-------------------------------------------|
G|-------------------------------------------------------|
D|-----------------------------------------------2-p1----|
A|--------------------------------------3-p2-p1----------|
E|--------------------------4-p3-p2-p1-------------------|

e|-----------------------------------------------5-p3----|
B|--------------------------------------5-p3-p2----------|
G|-----------------------------6-p4-p3-------------------|
D|--------------------7-p5-p4----------------------------|
A|--6-p4-p3----------------------------------------------|
E|-----------5-p3-p2-------------------------------------|

e|-------------------------------6-p5----4-p3-p2-p1------|
B|-------------------------6-p5--------------------------|
G|-------------------6-p5--------------------------------|
D|-------------6-p5--------------------------------------|
A|-------6-p5--------------------------------------------|
E|--6-p5----------------------------------------------1--|

Tab by Ipur.Heavym

Hanya itu saja yang bisa saya berikan. Semoga bisa membantu anda yang sedang belajar bermain gitar. Bila ada yang ingin anda tanyakan silahkan berikan komentar Anda di bawah. Dan bila ada master gitaris yang ingin menyempurnakan tutorial di atas silahkan tinggalkan komentar Anda di bawah.


Tags : Musik, teknik pull-off, cara memainkan teknik pull-off, belajar teknik pull off, cara melakukan teknik pull off, tips trik pull off, bagaimana cara melakukan teknik pull off, rahasia teknik gitar pull off, hammer off, menguasai teknik pull off, agar cepat bisa memainkan pul off, belajar pull off untuk pemula, bagaimana cara memainkan teknik gitar pull-off.

3 comments: