Saturday, February 12, 2011

Cara Membaca Tab Gitar


IKLAN
cara membaca tab gitar
TAB atau Tablatur merupakan suatu cara penulisan musik untuk alat musik string (termasuk Gitar dan Bass). Seperti halnya penulisan pada notasi musik standard, TAB hanya menggunakan karakter dan angka ASCII, agar bisa ditempatkan di Internet dan terbaca oleh semua jenis program

Berikut adalah beberapa keunggulan dan kelemahan yang dimiliki oleh sebuah tab:


Keunggulan Tablature     :

-Dapat menunjukkan string mana yang harus ditekan dan dimainkan
-Tablature dapat menunjukkan cara memainkan nada (hammer-on, pull-off, slide, bending dll.)
-Tablature juga dapat menunjukkan TUNING masing-masing string. Standard, drop-down atau up-tuning.


Kelemahan Tablature     :

-Tablature tidak dapat menunjukkan tempo atau lamanya nada yang harus dimainkan. Jadi harus mengenal atau mendengar lagu terlebih dahulu.
-Tablature juga tidak bisa memberitahukan jari mana yang harus digunakan. Apakah itu jari telunjuk, jari manis, jari jempol, ataupun jari kaki.Terserah anda         pilih yang mana.
-TablatureTAB tidak bisa menunjukkan kapan saat picking (petik) atau strumming (genjreng).



Pengenalan dan Cara membaca Tablature

Jika anda sudah mahir bermain gitar anda pasti ingin bermain melody. Dan anda pasti sudah mencari cari apa itu yang disebut dengan tab atau istilah formalnya adalah tablature. Tablature sebenarnya tidak melulu pada gitar saja, tapi bisa juga dipakai untuk alat musik lainnya.Tetapi disini khusus akan menjelaskan tentang tab pada gitar. “Mungkin dengan sekali penjelasan ,anda akan langsung paham, tetapi prakteknya sangat rumit dan kompleks.... he he he”. Mulai dari pengertian tablature dulu, kemudian baru menginjak istilah teknis tablature yang kompleks.

Dalam Tab, Garis - garis di bawah ini menunjukan senar dari gitar mulai dari senar yang paling kecil yang mampunyai nada E,dan senar diatasnya yang bernada B, hingga senar terbesar/tertebal yang bernada E.

E|---------------------------------------------------

B|---------------------------------------------------
G|---------------------------------------------------
D|---------------------------------------------------
A|---------------------------------------------------
E|---------------------------------------------------


Enam baris, masing-masing barisan mewakili senar dari gitar. Baris paling atas adalah senar paling bawah pada gitar (yang paling tipis dan bernada tinggi). Baris paling bawah adalah senar paling atas pada gitar (yang paling tebal, bersuara rendah).



Fretboard dasar pada gitar

Fret sendiri adalah pembatas-pembatas logam antara bar pada fretboard. Fret dihitung dari yang terjauh. Pada gitar elektrik biasanya berjumlah 22 sampai 24. Semakin tinggi semakin dekat, jaraknya semakin pendek dan kecil-kecil. Juga ada titik-titik yang untuk dijadiin tanda (sangat merepotkan kalo mesti dihitung satu-satu, makanya dikasih tanda). Biasanya ada di fret ke-3, ke-5, ke-7, ke-9, ke-12, dan seterusnya. Pada tab, fret dilambangkan dengan angkanya.
Contoh:
-Jika anda ingin memetik senar paling bawah pada tab (paling atas/tebal dalam gitar) pada fret ke-3, maka tablature-nya adalah:

E|--------------------------------------------------
B|--------------------------------------------------
G|--------------------------------------------------
D|--------------------------------------------------
A|--------------------------------------------------
E|--3-----------------------------------------------
   

-Jika anda ingin memetik senar D pada fret ke-4, dan kemudian dilanjutkan memetik senar A fret ke-7, maka tablature-nya adalah:

E|--------------------------------------------------
B|--------------------------------------------------
G|--------------------------------------------------
D|--4-----------------------------------------------
A|----7---------------------------------------------
E|--------------------------------------------------

Apakah sampai disini anda sudah bisa, kalau iya akan kita lanjutkan dengan menggunakan Chord

   
   
-Jika kita akan membentuk sebuah chord C  mayor maka tablature-nya adalah:


E|---------------------------------------------------
B|--1-----------------------------------------------
G|--------------------------------------------------
D|--2-----------------------------------------------
A|--3-----------------------------------------------
E|---------------------------------------------------



Jika sampai disini anda sudah bisa, tinggal anda melatihnya. Dan selanjutnya akan saya beri tes, apakah anda sudah membaca tablature tersebut.


Tes:


Bacalah tablature ini sambil memainkan gitar anda.


E|---------------------------------------------------
B|---------------------------------------------------
G|-----------------2--4--5--------------------------
D|--------2--3--5-----------------------------------
A|--3--5--------------------------------------------
E|---------------------------------------------------


jika yang terdengar adalah nada do (1) re mi fa sol la si do, berarti bisa dikatakan anda sudah bisa membaca tablature.

Mudah bukan membaca sebuah Tablature? hanya diperlukan sebuah niat dan kesabaran, tetapi saya sarankan anda untuk terus melatihnya sampai anda benar - benar mahir membaca sebuah tablature. Anda bisa melatihnya dengan mendapatkan tablature lagu atau melody kesukaan anda di http://guitaretab.com, dan di bawah ini ada sedikit lick melody untuk anda gunakan sebagai latihan. "copy dan paste tablature di bawah ini"




Always with Me Always with You



Joe Satriani
tabbed by :Gareth Robertson
any comments to: Garethroberts70@hotmail.com



Main Solo

----------------|----------------|------------------|------------------|
-----------4--5-|--5/7~----------|--7/9----7-----5--|--4----5----------|
----------------|----------------|------------------|----------4/6~----|
----------------|----------------|------------------|------------------|
----------------|----------------|------------------|------------------|
----------------|----------------|------------------|------------------|

--------------|-------------------|------------------|---------------|
--------------|-------------------|------------------|---------------|
--------------|--6/4---6--6/8-----|--8/9~-----8---6--|---------------|
--------------|-------------------|------------------|--4~-----------|
--------------|-------------------|------------------|---------------|
--------------|-------------------|------------------|---------------|

----------------|-----------------|------------------|---------------|
----------------|-----------------|------------------|---------------|
----------------|--4~-------------|--4/6~------6/8/--|--6~-----------|
--------4----4--|---------4----4--|------------------|---------------|
----------------|-----------------|------------------|---------------|
----------------|-----------------|------------------|---------------|

----------------------|------------------|----------------|---------------|
-----4------5----7----|--7/9h--7/---5/---|--4~----------4/|--2------------|
--4-------------------|------------------|----------------|---------------|
----------------------|------------------|----------------|---------------|
----------------------|------------------|----------------|---------------|
----------------------|------------------|----------------|---------------|

----------------|-------------------|----------7----7--|
----------------|------4--5--5/7----|--7/9~------------|
--2/4~----------|-------------------|------------------|
----------------|-------------------|------------------|
----------------|-------------------|------------------|
----------------|-------------------|------------------|

-----------9----9----9-11-|--12/14-----11--------|----------------|
--9/11~------12---12------|---------------14-----|--14~-----------|
--------------------------|----------------------|----------------|
--------------------------|----------------------|----------------|
--------------------------|----------------------|----------------|
--------------------------|----------------------|----------------|

----18r---16--------|--18r-18r-------16----|--19b-----19------|
--------------19----|----------19----------|------------------|
--------------------|----------------------|------------------|
--------------------|----------------------|------------------|
--------------------|----------------------|------------------|
--------------------|----------------------|------------------|

-------------------|----16h----14h12/11--14--|--12h-11------------|
--17~-------17/-0--|-------------------------|----------14~-------|
-------------------|-------------------------|--------------------|
-------------------|-------------------------|--------------------|
-------------------|-------------------------|--------------------|
-------------------|-------------------------|--------------------|

--19----------18------|--16----------------|----------------|--------------|
----------------------|----------19r-------|--19~-----------|--------------|
------18r---------16--|------16------------|----------------|--------------|
----------------------|--------------------|----------------|--------------|
----------------------|--------------------|----------------|--------------|
----------------------|--------------------|----------------|--------------|

----------------|--21~-------21/---|----14r---12----12----------|
--------12------|------------------|-------------15----15h14h12-|
----------------|------------------|----------------------------|
----------------|------------------|----------------------------|
----------------|------------------|----------------------------|
----------------|------------------|----------------------------|

--15/17----14~-------|-----9r-9r-9r--7----|--7----------------------------|
---------------------|-----------------10-|----10h8-7---------------------|
---------------------|--------------------|-----------9h7/6-7h9---7-6/4-7-|
---------------------|--------------------|-------------------------------|
---------------------|--------------------|-------------------------------|
---------------------|--------------------|-------------------------------|

----------------------------------|---------------|----------------|
----------------------------------|---------------|----------14r---|
----6h4---4-----------4-----------|---------------|----------------|
--------7---7h5h4h5h7---7h5h4-----|---------------|----------------|
------------------------------7h5-|--4~-----------|----------------|
----------------------------------|---------------|----------------|

------------------------|--------------------------------------|
--14--------------------|--------------12h14h15h14h12----------|
------------------------|-----11h12h14----------------14-12/11-|
------------------11h12h|--14----------------------------------|
------------12h14-------|--------------------------------------|
------------------------|--------------------------------------|

------------------|------------------|------------14r---|------------------|
------------------|--10/12~----------|--------12--------|------------------|
--11/15~----------|------------------|------------------|--------12/11-----|
------------------|------------------|------------------|------------------|
------------------|------------------|------------------|------------------|
------------------|------------------|------------------|------------------|

------------------|----------------|------------14~---|--------------|
------------------|------14r-------|--12~-------------|--------------|
------------------|----------------|------------------|--------------|
------------------|----------------|------------------|--------------|
--10/9~--------9/-|----------------|------------------|--------------|
------------------|----------------|------------------|--------------|

--------12----12--|--11/-----9/---7/-|--6~-----------|----------11--12--|
------------------|------------------|---------------|------------------|
------------------|------------------|---------------|------------------|
------------------|------------------|---------------|------------------|
------------------|------------------|---------------|------------------|
------------------|------------------|---------------|------------------|

--12/14~----------|--14h16~----14----12--|--11----12/-9~-----|--------------|
------------------|----------------------|-------------------|--------------|
------------------|----------------------|-------------------|--------------|
------------------|----------------------|-------------------|--------------|
------------------|----------------------|-------------------|--------------|
------------------|----------------------|-------------------|--------------|

--9/7---9--9/11~----|--11r---------9--|----------------|------------------|
--------------------|-----------------|--9/7~----------|------------------|
--------------------|-----------------|----------------|--------11----11--|
--------------------|-----------------|----------------|------------------|
--------------------|-----------------|----------------|------------------|
--------------------|-----------------|----------------|------------------|

--------------------|----------------------|----------------|
--12~---------------|--12/14~------14/16---|--14------------|
----------11----11--|----------------------|----------------|
--------------------|----------------------|----------------|
--------------------|----------------------|----------------|
--------------------|----------------------|----------------|

----11----12----14--|--16~---14~---------|------------------|----------------|
--------------------|--------------17----|--16~----------16/|--14~-------14--|
--------------------|--------------------|------------------|----------------|
--------------------|--------------------|------------------|----------------|
--------------------|--------------------|------------------|----------------|
--------------------|--------------------|------------------|----------------|

--------------|------------------------------|------------------------------|
12~-----------|--0-12h0h9-12h0h7-12h0h9-12h0h|-5-12h0h7-12h0h9-12h0h7-12h0h-|
----------------|------------------------------|----------------------------|
----------------|------------------------------|----------------------------|
----------------|------------------------------|----------------------------|
----------------|------------------------------|----------------------------|

------------------------------|--------------------------------|
--5-12h0h7-12h0h7-12h0h7-12h0h|--11-12h0h11-12h0h9-12h0h7-12h0h|
------------------------------|--------------------------------|
------------------------------|--------------------------------|
------------------------------|--------------------------------|
------------------------------|--------------------------------|

------------------------------|------------------------------|
--9-12h0h7-12h0h5-12h0h7-12h0h|--9-12h0h7-12h0h5-12h0h4-12h0h|
------------------------------|------------------------------|
------------------------------|------------------------------|
------------------------------|------------------------------|
------------------------------|------------------------------|

------------------------------|--------------------------------|
--2-12h0h2-12h0h2-12h0h2-12h0h|--11-12h0h11-12h0h9-12h0h7-12h0h|
------------------------------|--------------------------------|
------------------------------|--------------------------------|
------------------------------|--------------------------------|
------------------------------|--------------------------------|

------------------------------|------------------------------|
--9-12h0h7-12h0h5-12h0h7-12h0h|--9-12h0h7-12h0h4-12h0h5-12h0h|
------------------------------|------------------------------|
------------------------------|------------------------------|
------------------------------|------------------------------|
------------------------------|------------------------------|

------------------------------|---------------------|-----------------------|
--5-12h0h5-12h0h5-12h0h5-12h0-|--8/9-----7/-9--9/12-|--12/14-----12--12/14--|
------------------------------|--7/8-----6/-8--8/11-|--11/13-----11--11/13--|
------------------------------|---------------------|-----------------------|
------------------------------|---------------------|-----------------------|
------------------------------|---------------------|-----------------------|

--12------------|--13/14---14----14----|--14-------14/19----|
--9-------------|--10/11---11----11----|--12----------------|
----------------|----------------------|--------------------|
----------------|----------------------|--------------------|
----------------|----------------------|--------------------|
----------------|----------------------|--------------------|

--19~----16-----------|--19r-----16-------21r--|------19-21~----21/-|
------------19h16-----|-------------19h16------|--------------------|
----------------------|------------------------|--------------------|
----------------------|------------------------|--------------------|
----------------------|------------------------|--------------------|
----------------------|------------------------|--------------------|

-------------4-----|---------------------4---|------4------------------|
---------------7h4-|-----4-----------------7h|--4---4------------------|
----6b---6b--------|--6b----7h-6h4-6r-6b-----|----6b--7h6h4------------|
-------------------|-------------------------|--------------6h4--------|
-------------------|-------------------------|------------------6h4/2--|
-------------------|-------------------------|-------------------------|

-----------------|---------14------11--11r-|----11r--9h7h9-------------|
-----------------|-------------12----------|---------------12h11h9-11~-|
-----------------|------9------------------|---------------------------|
-----------------|-------------------------|---------------------------|
--2/4~--------4/-|-------------------------|---------------------------|
-----------------|-------------------------|---------------------------|

------------------------|-----------------|--21r-----------|--19~-----21b--|
----9h11h9/7h--9h7/5~---|--5/7~----7/-----|----------------|---------------|
------------------------|-----------------|----------------|---------------|
------------------------|-----------------|----------------|---------------|
------------------------|-----------------|----------------|---------------|
------------------------|-----------------|----------------|---------------|

----------------|---------------|----------------|----------------|
----------------|---------------|----------4--5--|--5/7~----------|
----------------|---------------|----------------|----------------|
----------4/-6/-|--4~-----------|----------------|----------------|
----------------|---------------|----------------|----------------|
----------------|---------------|----------------|----------------|

------------------|-----------------|--------------|-----------------|
--7/9h----7/---5/-|--4/---5/-2~-----|--------------|-----------------|
------------------|-----------------|--------------|--4----6/-8------|
------------------|-----------------|--------------|-----------------|
------------------|-----------------|--------------|-----------------|
------------------|-----------------|--------------|-----------------|

------------------|----------------|----------------|-----------------|
------------------|----------------|----------------|-----------------|
--8/9h----8/---6--|----------------|----------------|--4--------------|
------------------|--6/4~----------|--------4----4--|---------4----4--|
------------------|----------------|----------------|-----------------|
------------------|----------------|----------------|-----------------|

------------------|---------------|----------------------|------------------|
------------------|---------------|-----4------5----7----|--7/9h--7/---5/---|
--4/6~------6/8/--|--6~-----------|--4-------------------|------------------|
------------------|---------------|----------------------|------------------|
------------------|---------------|----------------------|------------------|
------------------|---------------|----------------------|------------------|

----------------|---------------|----------------|------------------|
--4~----------4/|--2~-----------|----------------|-------4--5--7----|
----------------|---------------|--2/4~----------|----4-------------|
----------------|---------------|----------------|------------------|
----------------|---------------|----------------|------------------|
----------------|---------------|----------------|------------------|

-------------------|------------------|--------------|
--7/9~----9/7---5--|--4h---5----------|--------------|
-------------------|----------4/6~----|--------------|
-------------------|------------------|--------------|
-------------------|------------------|--------------|
-------------------|------------------|--------------|

---------------------------|------------------------------|
---------------------------|------------------------------|
-----------8-9h---8--------|------------------------------|
----8h9-11----------11h9h8/|--6h8h9h---8h6-----------6-6--|
---------------------------|---------------9h7h6h7h9------|
---------------------------|------------------------------|

-------------------------------|---------------|--------------|-------------|
-------------------------------|---------------|--------------|-------------|
-------------------------------|---------------|--------------|-------------|
-------------------------------|---------------|--------------|-------------|
--9h7h6h7h9h---7h6---6h7---6---|---------------|--------------|-------------|
-------------------9---------9h|--7------------|--------------|-------------|
               


ris, bersama sejumlah rekanya dalam buletin mingguan EOS yang diterbitkan American Geophysical Union dan Journal of Geophysical Research-Solid Earth pada awal 2010 menyebutkan pergeseran bumi. Gerak fluida dengan gerak Rotasi bumi itu menimbulkan gerak ke atas kutub utara magnet atau polar magneting upwelling. "Namun, ini masih membutuhkan permodelan yang lebih baik lagi", katanya.

15 comments:

  1. Replies
    1. Kalau garis miring \ berarti pull-of
      Kalau / berarti hammer

      Delete
  2. bang mau tanya maksudnya garis mioring itu apa? cnth 7/9.... gmn cra baca nya????

    ReplyDelete
    Replies
    1. garis miring / artinya hammer. Jadi caranya adalah : tekan senar 7, petik/bunyikan sekali dan kemudian tanpa memetiknya lagi jari kiri anda bergerak secara slide ke kolom 9

      Delete
  3. @shev_khoir

    / (garis miring) maksudnya menggeser jari.

    contoh : ----7/9---
    artinya: tekan senar kolom ke 7, petik sekali dengan menggunakan jari kanan, kemudian tanpa memetiknya lagi geser jari kiri Anda ke kolom 9.

    *note:
    geser keatas | ---7/8--- | hammering
    geser kebawah| ---7/6--- | pull-off

    ReplyDelete
  4. very good for the beginner..the explaining very clear...good

    ReplyDelete
  5. @Erfiz fahrizal budiarta: thanks gan

    @Tickamercysz For Peace: ok, thanks

    ReplyDelete
  6. tab yang bermain drum ga ada ya sob ? hehehe .

    ReplyDelete
  7. om mo nanya itu yg 12h maksud nye 12 hammering ???

    #maklum ane masih newbie ^^

    ReplyDelete
    Replies
    1. Iya gan, 12h artinya memetik senar pada fret ke-12 dengan menggunakan sliding hammering

      Delete
  8. om yang
    ---------------------------|------------------------------|
    ---------------------------|------------------------------|
    -----------8-9h---8--------|------------------------------|
    ----8h9-11----------11h9h8/|--6h8h9h---8h6-----------6-6--|
    ---------------------------|---------------9h7h6h7h9------|
    ---------------------------|------------------------------|

    maksudnya gimana ya ? ada 8h9-11 11h9h8 lah dan blablabla itu maksudnya apa ya ?

    ReplyDelete
    Replies
    1. ---8h9-11----
      itu artinya : pencet senar 4 kolom 8, petik/bunyikan sekali kemudian tanpa memetiknya lagi geser jari kiri anda ke kolom 9. baru setelah itu ke kolom 11 dan petik.

      Jadi disini kita hanya memetiknya 2 kali, yaitu pas di kolom 8 dan pas di kolom 11

      Semoga bisa membantu :)

      Delete
  9. goood...
    bener2 mantab,,lebih lengkap,, lebih mudah di mengerti
    plus contoh lagu Joe Satriani
    thank..

    ReplyDelete