Wednesday, November 26, 2014

Cara Bermain Petikan dan Melodi Menghitung Hari - Krisdayanti


TUTORIAL GITAR LENGKAP - Cara Bermain Petikan dan Melodi Menghitung Hari - Krisdayanti. Krisdayanti adalah penyanyi papan atas Indonesia yang dulu memang sangat terkenal, saat ini pun penyanyi berwajah cantik ini juga masih terkenal dan sering tampil di acara musik Televisi.

Krisdayanyi sendiri adalah seorang penyanyi yang lahir di Batu, Jawa Timur pada 24 Maret 1975. Saat berusia 12 tahun, penyanyi ini sudah merilis album pertamanya, Burung-Burung Malam, namun tidak cukup berhasil di pasaran. Krisdayanti kemudian merintis kariernya dengan mengikuti berbagai kompetisi menyanyi. Berawal di kemenanganya di Festival Asia Bagus di Jepang pada tahun 1992 artis Krisdayanti langsung terkenal di Indonesia. Kemudian ia menjalin kontrak dengan perusahaan rekaman musik Warnet Music Indonesia dan merilis album professional perdananya terjudul Terserah.

Krisdayanti - Menghitung Hari

Dari dulu sampai sekarang, lagu yang cukup terkenal dari Krisdayanti adalah lagu berjudul Menghitung Hari. Berdasarkan permintaan dari pembaca tentang lagu Menghitung Hari - Krisdayanti pada 26 November 2014. Disini TUTORIAL GITAR LENGKAP akan memberikan tutorial cara bermain melodi gitar menghitung hari dari Krisdayanyi.

Tutorial akan diberikan dalam bentuk tab gitar, jadi untuk anda yang belum bisa membaca tab gitar, silahkan pelajari terlebih dahulu cara membaca tab gitar untuk pemula. Cara belajar tab gitar tidak lah lama, hanya membutuhkan waktu sebentar
 - Cara membaca tab gitar untuk pemula

Pastikan juga gitar anda sudah distem standard, baca artikel ini untuk mempelajari bagaimana cara menyetem gitar standar
 - Cara mudah menyetem gitar standard dan akurat

Jika anda sudah bisa membaca tab gitar dan gitar anda sudah tersetem dengan baik, silahkan melanjutkan ikuti panduan dibawah ini.

Cara Bermain Petikan dan Melodi Menghitung Hari - Krisdayanti


Bagian Lagu 


kunci gitar menghitung hari krisdayanti

Bagian Lagu (Reff)

chord menghitung hari

Bagian Melodi

E[---------------------------------------------------------------]
B[----8-7-----------------------------------8-7-8-10-13-12-------]
G[--------7-4-7/9--7---------------------------------------------]
D[-------------------7-7/9-9/10-10-9-7-9-10----------------------]  
A[---------------------------------------------------------------]
E[---------------------------------------------------------------]

E[-------------------------------------------------]
B[-----------8-7----------------------12-10--------]
G[-----------------------11-9----------------------]
D[----7-9-10-------5-7-9-------7-9-10--------------]  
A[-------------------------------------------------]
E[-------------------------------------------------]

Bagian Lagu

chord menghitung hari

Bagian Lagu

chord menghitung hari

chord menghitung hari

Selesai

Kunci / Chord yang digunakan

kunci gitar menghitung hari krisdayanti



Jika ada kesalahan pada chord dan tab gitar diatas, silahkan koreksi dengan memberikan komentar anda dibawah ini. Terimakasih


Artikel terkait :