Thursday, October 23, 2014

Cara Bermain Melodi Gitar Garuda Di Dadaku - Netral


TUTORIAL GITAR LENGKAP - Cara Bermain Melodi Gitar Garuda Di Dadaku - Netral. netral adalah sebuah grup band asal Indonesia yang cukup populer. Band ini mempunyai anggota hanya sebanyak 3 orang, yaitu Bagus pada vocal dan bass, Christopher Bollemeyer pada gitar, dan Eno sebagai drummer. Band ini mengusung aliran yang cukup cadas yaitu Alternative Rock dan Punk Rock.

Netral sendiri dibentuk pada tahun 1991 yang pada saat itu gitaris dan drumer bukanlah orang yang sekarang. Dulu anggota band Netral adalah Bagus sebagai vocal dan bass, Gabriel Bimo Sulaksono sebagai drummer dan Ricy Dayandani sebagai gitaris. Band ini pertama muncul di stasion TV local MTV Indonesia.

Salah satu lagu yang cukup populer saat ini adalah lagu berjudul Garuda Di Dadaku. Lagu ini sepertinya ditujukan untuk timnas Sepakbola Indonesia yang akan berlaga di pertandingan sepak bola tingkat Asia. Lagu ini banyak dimainkan oleh suporter bola, anak-anak muda dan bahkan anak yang masih kecil.

Bagi para gitaris bagian lagu yang sangat menarik adalah bagian melodinya. Lagu garuda di dadaku ini mempunyai melodi lead pada bagian awal lagunya. Bagi anda yang ingin mempelajari melodi lagu garuda di dadaku, disini caragitar.com akan memberikan tutorial cara bermain melodi gitar garuda di dadaku dalam bentuk sebuah tab gitar.

Tetapi sebelumnya, bagi anda yang belum bisa membaca tab gitar, saya sarankan anda mempelajarinya terlebih dahulu pada artikel ini :
 - Cara membaca tab gitar untuk pemula

Cara Bermain Melodi Gitar Garuda di Dadaku - Netral


1.  Intro
Bagian pertama dari lagu adalah intro yang dimainkan dengan menggunakan gitar. Untuk tab gitarnya lihat dibawah ini.

[INTRO]
       S  S S  S  S S  S  S S  S  S S  S  S  S  S  
E||-----------------------------------------------|
B||-----------------------------------------------|
G||*----------16p-0-0---------16p-0-0-14p-0-12p-0-|
D||*--12p-0-0---------12p-0-0---------------------|
A||-----------------------------------------------|
E||-----------------------------------------------|


                           
   S  S      S  S  S S  S  S S  S  S S  S
-------------------------------------------------|
-------------------------------------------------|
---------------16p-0-0-17p-0-0-17p-0-0-17--------|
--12p-0------0-----------------------------------|
-------------------------------------------------|
-------------------------------------------------|


   S  S S  S  S S  S  S S  S  S S  S  S  S  S  
----------------------------------------------|
----------------------------------------------|
----------16p-0-0---------16p-0-0-14p-0-12p-0-|
--12p-0-0---------12p-0-0---------------------|
----------------------------------------------|
----------------------------------------------|


                                     
   S  S S  S  S S  S  S S  S  S S  S  S  S                                      
--------------------------------------------------------------------------------||
--15p-0-0---------15p-0-0---------15p-0-----------------------------------------||
----------12p-0-0---------12p-0-0-------12p-------------------------------------||
--------------------------------------------------------------------------------||
--------------------------------------------------------------------------------||
--------------------------------------------------------------------------------||

2. Bagian Lagu
Selanjutnya adalah bagian utama dari lagu. Untuk chord nya adalah

 - Ayo putra bangsa.............chord-nya adalah G - C - Am - D
 - Jayalah negaraku, tanah air..................... chord-nya adalah G - Am - Bm - D - G - Am - D
 - Kobarkan semangatmu..............chord-nya adalah G - Bm - Am - D - Em - Bm - Am - D


Artikel terkait :
 - Belajar melodi Pas Band - Jengah
 - Belajar melodi Peterpand - Semua Tentang Kita

Referensi : wikipedia.org. guitaretab