Friday, October 31, 2014

Cara Bermain Melodi Gitar Afterlife - Avenged Sevenfold


TUTORIAL GITAR LENGKAP - Cara Bermain Melodi Gitar Afterlife - Avenged Sevenfold. Avenged Sevenfold memang sebuah band metal yang sangat legendaris, lagu-lagunya banyak diterima oleh semua orang. Salah satu lagu yang cukup terkenal adalah lagu berjudul Afterlife. Dengan tempo yang lumayan cepat lagu ini banyak dimainkan oleh gitaris-gitaris.

Bagi anda yang mau mempelajari lagu afterlife dari avenged sevenfold ini, disini caragitar.com akan memberikan tutorial cara bermain melodi afterlife dalam sebuah tab gitar. Bagi anda yang belum bisa membaca tab gitar, saya sarankan anda mempelajarinya terlebih dahulu. Untuk mempelajarinya pun tidaklah lama, mungkin bagi yang cepat tanggap mempelajari tab gitar hanya membutuhkan waktu sekitar 10-20 menit saja.
 - Cara membaca tab gitar untuk pemula

Pada lagu afterlife ini, kita menggunakan tunig/steman drop D. Jadi tuning gitar anda terlebih dahulu menjadi tuning drop d. Klik disini jika tidak tahu cara menyetem gitar drop D
 - Cara menyetem gitar drop D

Cara Bermain Melodi Intro Gitar Afterlife - Avenged Sevenfold


Intro
Bagian intro adalah bagian awal lagu, pada afterlife bagian awal adalah permainan sebuah alat musik sejenis biola, baru kemudian diiringi dengan melodi gitar lead yang mendominasi bagian intro. Untuk tab gitarnya adalah sebagai berikut.

e|-----------------------10----------12-10-12b^13>12-15--|
B|-8-10-13--10-8-10--8-10-----10-8-10---------------------|
G|--------------------------------------------------------|
D|--------------------------------------------------------|
A|--------------------------------------------------------|
D|--------------------------------------------------------|

e|-15-17-15-13-----15-17-15-13-----15-17-15-13------------|
B|-------------15--------------15-------------------------|
G|--------------------------------------------------------|
D|--------------------------------------------------------|
A|--------------------------------------------------------|
D|--------------------------------------------------------| 2x

e|-20-22-20-18-----20-22-20-18------20-22-20-18-----------|
B|-------------20--------------20-------------------------|
G|--------------------------------------------------------|
D|--------------------------------------------------------|
A|--------------------------------------------------------|
D|--------------------------------------------------------|

e|-20-22-20-18-----20-22-20-18------22b^------------------|
B|-------------20--------------20-------------------------|
G|--------------------------------------------------------|
D|--------------------------------------------------------|
A|--------------------------------------------------------|
D|--------------------------------------------------------|