Sunday, November 30, 2014

Cara Bermain Melodi Gitar Mencintaimu Sampai Mati - Utopia


TUTORIAL GITAR LENGKAP - Cara Bermain Melodi Gitar Mencintaimu Sampai Mati - Utopia. Utopia adalah sebuah band asal Indonesia yang sudah terkenal cukup lama, yaitu sejak tahun 2002 sampai dengan sekarang. Grup musik asal Bandung ini mengusung genre/aliran musik Pop Rock, Alternative Rock dan Power Pop.

Pada tahun 2014, Pemain GGS (Ganteng Ganteng Serigala), Utopia mengeluarkan album kompilasi soundtrack bertajuk Ganteng Ganteng Serigala (Original Soundtrack). Dialbum ini memuat lagu Utopia, dan lagu lainnya dinyanyikan oleh artis lain seperti Nineball, Aliando, Ari Lasso dan lain-lain. Album ini dirilis boxset & VCD Karaoke Soundtrack. Lagu yang menjadi 'theme song' yaitu Mencintamu Sampai Mati (Utopia) & Akulah Serigala (Nineball). Album ini dirilis oleh label Aquarius Musikindo, Amanah Surga Productions, Nada Hijrah Forte Records,Music Factory Indonesia, dan album ini hanya dijual direstoran KFC seluruh Indonesia.

Salah satu lagu yang cukup terkenal adalah lagu dari Utopia berjudul Mencintaimu Sampai Mati, bagi anda yang ingin belajar bagaimana cara bermain melodi gitar lagu ini, disini TUTORIAL GITAR LENGKAP akan memberikan tutorial cara memainkan lagu dengan chord dan melodi yang dikemas dalam sebuah tab gitar.

Bagi anda yang belum bisa membaca tab gitar, saya sarankan anda mempelajari bagaimana cara membaca tab gitar terlebih dahulu pada artikel ini
Cara membaca tab gitar sangatlah mudah, anda mungkin hanya membutuhkan waktu beberapa menit untuk mempelajarinya.

Jika sudah, pastikan gitar anda juga telah distem Standard Tune, klik disini untuk mengetahui cara menyetem gitar standar tune dengan benar dan cepat.

Selanjutnya, silahkan ikuti panduan dibawah ini.


Bagian Lagu
chord gitar utopia mencintaimu sampai mati


Bagian Melodi
Pada bagian ini, chord nya adalah :

[solo] A# Gm E A 
       Dm A/C# A

Sedangkan untuk solo melodinya, tab gitar nya adalah sebagai berikut :

E[---------------------------------------------------------------]
B[---------/6~--------/5~---3-3/5-5-5h6-5-3h5p3-2---2-3-5--------]
G[---2h3p2------2h3p2--------------------------------------------]
D[---------------------------------------------------------------]  
A[---------------------------------------------------------------]
E[---------------------------------------------------------------]

E[---------------------------------------------------------------]
B[---6-6---------6-6---------------------8-8---------------------]
G[-------7-7---------7-7-9-7-9-9-6-6---------9-9-6-6-------------]
D[-----------7-7---------------------7-7-------------------------]  
A[---------------------------------------------------------------]
E[---------------------------------------------------------------]

E[---------------------------------------------------------------]
B[----/11-10--10-8--8-6--6-5--8-6-5-6-5---------10~--------------]
G[--------------------------------------7-6h7/9------------------]
D[---------------------------------------------------------------]  
A[---------------------------------------------------------------]
E[---------------------------------------------------------------]



Bagian Lagu
kunci gitar utopia

JIka ada yang salah mengenai tab gitar atau pun kunci gitar diatas, silahkan koreksi dengan memberikan komentar anda dibawah ini. Terimakasih telah membaca tutorial ini


Artikel terkait :